ISO-10303-21;
HEADER;
FILE_DESCRIPTION (( 'STEP AP203' ),
    '1' );
FILE_NAME ('TTN041005-E0W.STEP',
    '2019-07-16T13:04:57',
    ( '' ),
    ( '' ),
    'SwSTEP 2.0',
    'SolidWorks 2018',
    '' );
FILE_SCHEMA (( 'CONFIG_CONTROL_DESIGN' ));
ENDSEC;

DATA;
#1 = CARTESIAN_POINT ( 'NONE',  ( 0.0000000000000000000, -15.31521769187934368, 0.0000000000000000000 ) ) ;
#2 = DIRECTION ( 'NONE',  ( -0.0000000000000000000, -1.000000000000000000, -0.0000000000000000000 ) ) ;
#3 = DIRECTION ( 'NONE',  ( 0.0000000000000000000, 0.0000000000000000000, -1.000000000000000000 ) ) ;
#4 = ADVANCED_FACE ( 'NONE', ( #112 ), #195, .T. ) ;
#5 = CARTESIAN_POINT ( 'NONE',  ( 0.0000000000000000000, 0.0000000000000000000, 0.0000000000000000000 ) ) ;
#6 = ORIENTED_EDGE ( 'NONE', *, *, #130, .F. ) ;
#7 = ADVANCED_FACE ( 'NONE', ( #118 ), #139, .T. ) ;
#8 = SECURITY_CLASSIFICATION_LEVEL ( 'unclassified' ) ;
#9 = CIRCLE ( 'NONE', #77, 32.25000000000000000 ) ;
#10 = PERSON_AND_ORGANIZATION_ROLE ( 'design_supplier' ) ;
#11 = EDGE_LOOP ( 'NONE', ( #54, #105, #147 ) ) ;
#12 = EDGE_CURVE ( 'NONE', #205, #94, #9, .T. ) ;
#13 = PERSON_AND_ORGANIZATION ( #92, #69 ) ;
#14 = DIRECTION ( 'NONE',  ( 0.0000000000000000000, 1.000000000000000000, 0.0000000000000000000 ) ) ;
#15 = CARTESIAN_POINT ( 'NONE',  ( 0.0000000000000000000, -15.31521769187934368, 0.0000000000000000000 ) ) ;
#16 = CARTESIAN_POINT ( 'NONE',  ( 0.0000000000000000000, 0.2499999999999863998, 0.0000000000000000000 ) ) ;
#17 = DIRECTION ( 'NONE',  ( -0.0000000000000000000, -1.000000000000000000, -0.0000000000000000000 ) ) ;
#18 = CARTESIAN_POINT ( 'NONE',  ( 3.095294784844935366E-15, 0.0000000000000000000, -25.15000000000000568 ) ) ;
#19 = CARTESIAN_POINT ( 'NONE',  ( 0.0000000000000000000, -15.31521769187934368, 0.0000000000000000000 ) ) ;
#20 = CC_DESIGN_PERSON_AND_ORGANIZATION_ASSIGNMENT ( #85, #71, ( #251 ) ) ;
#21 = AXIS2_PLACEMENT_3D ( 'NONE', #1, #102, #3 ) ;
#22 = SHAPE_DEFINITION_REPRESENTATION ( #49, #146 ) ;
#23 = PRODUCT_DEFINITION ( 'UNKNOWN', '', #207, #93 ) ;
#24 = APPLICATION_CONTEXT ( 'configuration controlled 3d designs of mechanical parts and assemblies' ) ;
#25 = CALENDAR_DATE ( 2019, 16, 7 ) ;
#26 = APPROVAL ( #126, 'UNSPECIFIED' ) ;
#27 = CIRCLE ( 'NONE', #162, 25.39999999999999858 ) ;
#28 = DIRECTION ( 'NONE',  ( 0.0000000000000000000, 0.7071067811865378028, 0.7071067811865573427 ) ) ;
#29 = CALENDAR_DATE ( 2019, 16, 7 ) ;
#30 = AXIS2_PLACEMENT_3D ( 'NONE', #173, #131, #115 ) ;
#31 = PRODUCT ( 'TTN041005-E0W', 'TTN041005-E0W', '', ( #86 ) ) ;
#32 = CARTESIAN_POINT ( 'NONE',  ( 3.110602869834276076E-15, 4.556936192387963658, 25.39999999999999503 ) ) ;
#33 = APPROVAL_DATE_TIME ( #163, #26 ) ;
#34 = DIRECTION ( 'NONE',  ( 1.000000000000000000, 0.0000000000000000000, -1.224646799147353207E-16 ) ) ;
#35 = DIRECTION ( 'NONE',  ( 0.0000000000000000000, 0.0000000000000000000, -1.000000000000000000 ) ) ;
#36 = EDGE_CURVE ( 'NONE', #247, #99, #65, .T. ) ;
#37 = FACE_OUTER_BOUND ( 'NONE', #11, .T. ) ;
#38 = DIRECTION ( 'NONE',  ( -0.0000000000000000000, -1.000000000000000000, -0.0000000000000000000 ) ) ;
#39 = CARTESIAN_POINT ( 'NONE',  ( 0.0000000000000000000, 0.0000000000000000000, 0.0000000000000000000 ) ) ;
#40 = FACE_OUTER_BOUND ( 'NONE', #241, .T. ) ;
#41 = EDGE_LOOP ( 'NONE', ( #154, #142 ) ) ;
#42 = COORDINATED_UNIVERSAL_TIME_OFFSET ( 5, 0, .BEHIND. ) ;
#43 = DIRECTION ( 'NONE',  ( 0.0000000000000000000, 0.0000000000000000000, 1.000000000000000000 ) ) ;
#44 = APPROVAL ( #167, 'UNSPECIFIED' ) ;
#45 = CC_DESIGN_SECURITY_CLASSIFICATION ( #251, ( #207 ) ) ;
#46 = EDGE_LOOP ( 'NONE', ( #140, #168, #214, #82 ) ) ;
#47 = AXIS2_PLACEMENT_3D ( 'NONE', #250, #14, #59 ) ;
#48 = VECTOR ( 'NONE', #113, 1000.000000000000000 ) ;
#49 = PRODUCT_DEFINITION_SHAPE ( 'NONE', 'NONE',  #23 ) ;
#50 = PERSON_AND_ORGANIZATION ( #92, #69 ) ;
#51 = PERSON_AND_ORGANIZATION_ROLE ( 'creator' ) ;
#52 = CC_DESIGN_DATE_AND_TIME_ASSIGNMENT ( #158, #72, ( #251 ) ) ;
#53 = ORIENTED_EDGE ( 'NONE', *, *, #166, .F. ) ;
#54 = ORIENTED_EDGE ( 'NONE', *, *, #182, .F. ) ;
#55 = LOCAL_TIME ( 9, 4, 57.00000000000000000, #249 ) ;
#56 = EDGE_CURVE ( 'NONE', #76, #94, #240, .T. ) ;
#57 = LINE ( 'NONE', #192, #223 ) ;
#58 = LOCAL_TIME ( 9, 4, 57.00000000000000000, #212 ) ;
#59 = DIRECTION ( 'NONE',  ( 0.0000000000000000000, 0.0000000000000000000, 1.000000000000000000 ) ) ;
#60 = CARTESIAN_POINT ( 'NONE',  ( 0.0000000000000000000, 0.0000000000000000000, -25.39999999999999858 ) ) ;
#61 = EDGE_LOOP ( 'NONE', ( #246, #124, #53, #208 ) ) ;
#62 =( LENGTH_UNIT ( ) NAMED_UNIT ( * ) SI_UNIT ( .MILLI., .METRE. ) );
#63 = CARTESIAN_POINT ( 'NONE',  ( 0.0000000000000000000, 4.556936192387962770, 0.0000000000000000000 ) ) ;
#64 = FACE_OUTER_BOUND ( 'NONE', #41, .T. ) ;
#65 = LINE ( 'NONE', #196, #48 ) ;
#66 = ADVANCED_FACE ( 'NONE', ( #40 ), #78, .T. ) ;
#67 = LINE ( 'NONE', #91, #122 ) ;
#68 = EDGE_CURVE ( 'NONE', #95, #165, #67, .T. ) ;
#69 = ORGANIZATION ( 'UNSPECIFIED', 'UNSPECIFIED', '' ) ;
#70 = ORIENTED_EDGE ( 'NONE', *, *, #201, .T. ) ;
#71 = PERSON_AND_ORGANIZATION_ROLE ( 'classification_officer' ) ;
#72 = DATE_TIME_ROLE ( 'classification_date' ) ;
#73 = APPROVAL_ROLE ( '' ) ;
#74 = PRODUCT_RELATED_PRODUCT_CATEGORY ( 'detail', '', ( #31 ) ) ;
#75 = DIRECTION ( 'NONE',  ( -0.0000000000000000000, -1.000000000000000000, -0.0000000000000000000 ) ) ;
#76 = VERTEX_POINT ( 'NONE', #229 ) ;
#77 = AXIS2_PLACEMENT_3D ( 'NONE', #15, #34, #210 ) ;
#78 = SPHERICAL_SURFACE ( 'NONE', #144, 32.25000000000000000 ) ;
#79 = DIRECTION ( 'NONE',  ( 0.0000000000000000000, 0.0000000000000000000, -1.000000000000000000 ) ) ;
#80 = DIRECTION ( 'NONE',  ( -0.0000000000000000000, -1.000000000000000000, -0.0000000000000000000 ) ) ;
#81 = DIRECTION ( 'NONE',  ( 0.0000000000000000000, 1.000000000000000000, 0.0000000000000000000 ) ) ;
#82 = ORIENTED_EDGE ( 'NONE', *, *, #201, .F. ) ;
#83 = ADVANCED_FACE ( 'NONE', ( #225 ), #211, .T. ) ;
#84 = VECTOR ( 'NONE', #17, 1000.000000000000000 ) ;
#85 = PERSON_AND_ORGANIZATION ( #92, #69 ) ;
#86 = MECHANICAL_CONTEXT ( 'NONE', #218, 'mechanical' ) ;
#87 = CLOSED_SHELL ( 'NONE', ( #4, #83, #101, #66, #180, #161, #7 ) ) ;
#88 = MANIFOLD_SOLID_BREP ( 'TTN035608-1-solid1', #87 ) ;
#89 = CIRCLE ( 'NONE', #123, 25.15000000000000568 ) ;
#90 = CALENDAR_DATE ( 2019, 16, 7 ) ;
#91 = CARTESIAN_POINT ( 'NONE',  ( 0.0000000000000000000, 0.0000000000000000000, 25.15000000000000568 ) ) ;
#92 = PERSON ( 'UNSPECIFIED', 'UNSPECIFIED', 'UNSPECIFIED', ('UNSPECIFIED'), ('UNSPECIFIED'), ('UNSPECIFIED') ) ;
#93 = DESIGN_CONTEXT ( 'detailed design', #24, 'design' ) ;
#94 = VERTEX_POINT ( 'NONE', #32 ) ;
#95 = VERTEX_POINT ( 'NONE', #194 ) ;
#96 = DIRECTION ( 'NONE',  ( 0.0000000000000000000, 0.0000000000000000000, 1.000000000000000000 ) ) ;
#97 = AXIS2_PLACEMENT_3D ( 'NONE', #233, #43, #188 ) ;
#98 = CARTESIAN_POINT ( 'NONE',  ( 0.0000000000000000000, 0.0000000000000000000, 0.0000000000000000000 ) ) ;
#99 = VERTEX_POINT ( 'NONE', #119 ) ;
#100 = DIRECTION ( 'NONE',  ( 0.0000000000000000000, 0.0000000000000000000, -1.000000000000000000 ) ) ;
#101 = ADVANCED_FACE ( 'NONE', ( #37 ), #103, .T. ) ;
#102 = DIRECTION ( 'NONE',  ( 1.000000000000000000, 0.0000000000000000000, 0.0000000000000000000 ) ) ;
#103 = SPHERICAL_SURFACE ( 'NONE', #21, 32.25000000000000000 ) ;
#104 = ORIENTED_EDGE ( 'NONE', *, *, #209, .F. ) ;
#105 = ORIENTED_EDGE ( 'NONE', *, *, #12, .T. ) ;
#106 = DATE_TIME_ROLE ( 'creation_date' ) ;
#107 = PERSON_AND_ORGANIZATION_ROLE ( 'creator' ) ;
#108 = ORIENTED_EDGE ( 'NONE', *, *, #120, .T. ) ;
#109 = PERSON_AND_ORGANIZATION ( #92, #69 ) ;
#110 = DIRECTION ( 'NONE',  ( 0.0000000000000000000, 0.0000000000000000000, -1.000000000000000000 ) ) ;
#111 = AXIS2_PLACEMENT_3D ( 'NONE', #176, #75, #226 ) ;
#112 = FACE_OUTER_BOUND ( 'NONE', #61, .T. ) ;
#113 = DIRECTION ( 'NONE',  ( 8.659560562355053653E-17, 0.7071067811865378028, -0.7071067811865573427 ) ) ;
#114 = DIRECTION ( 'NONE',  ( -0.0000000000000000000, -1.000000000000000000, -0.0000000000000000000 ) ) ;
#115 = DIRECTION ( 'NONE',  ( 0.0000000000000000000, 0.0000000000000000000, 1.000000000000000000 ) ) ;
#116 = CARTESIAN_POINT ( 'NONE',  ( 0.0000000000000000000, 0.0000000000000000000, 0.0000000000000000000 ) ) ;
#117 = AXIS2_PLACEMENT_3D ( 'NONE', #200, #81, #217 ) ;
#118 = FACE_OUTER_BOUND ( 'NONE', #153, .T. ) ;
#119 = CARTESIAN_POINT ( 'NONE',  ( 0.0000000000000000000, 0.2499999999999863998, -25.39999999999999858 ) ) ;
#120 = EDGE_CURVE ( 'NONE', #94, #76, #159, .T. ) ;
#121 = EDGE_LOOP ( 'NONE', ( #6, #108, #70, #202 ) ) ;
#122 = VECTOR ( 'NONE', #28, 1000.000000000000000 ) ;
#123 = AXIS2_PLACEMENT_3D ( 'NONE', #5, #138, #100 ) ;
#124 = ORIENTED_EDGE ( 'NONE', *, *, #36, .T. ) ;
#125 = DATE_AND_TIME ( #29, #242 ) ;
#126 = APPROVAL_STATUS ( 'not_yet_approved' ) ;
#127 = APPROVAL_ROLE ( '' ) ;
#128 = ORIENTED_EDGE ( 'NONE', *, *, #182, .T. ) ;
#129 = AXIS2_PLACEMENT_3D ( 'NONE', #19, #216, #96 ) ;
#130 = EDGE_CURVE ( 'NONE', #94, #165, #57, .T. ) ;
#131 = DIRECTION ( 'NONE',  ( 0.0000000000000000000, 1.000000000000000000, 0.0000000000000000000 ) ) ;
#132 = DIRECTION ( 'NONE',  ( 1.000000000000000000, 0.0000000000000000000, 0.0000000000000000000 ) ) ;
#133 = APPROVAL_PERSON_ORGANIZATION ( #219, #44, #73 ) ;
#134 = PLANE ( 'NONE',  #135 ) ;
#135 = AXIS2_PLACEMENT_3D ( 'NONE', #98, #197, #35 ) ;
#136 = PERSON_AND_ORGANIZATION ( #92, #69 ) ;
#137 = CARTESIAN_POINT ( 'NONE',  ( 3.110602869834276865E-15, 0.2499999999999863998, 25.39999999999999858 ) ) ;
#138 = DIRECTION ( 'NONE',  ( -0.0000000000000000000, -1.000000000000000000, -0.0000000000000000000 ) ) ;
#139 = CONICAL_SURFACE ( 'NONE', #47, 25.15000000000000568, 0.7853981633974621568 ) ;
#140 = ORIENTED_EDGE ( 'NONE', *, *, #56, .T. ) ;
#141 = ORIENTED_EDGE ( 'NONE', *, *, #12, .F. ) ;
#142 = ORIENTED_EDGE ( 'NONE', *, *, #185, .T. ) ;
#143 = APPROVAL_PERSON_ORGANIZATION ( #227, #26, #127 ) ;
#144 = AXIS2_PLACEMENT_3D ( 'NONE', #151, #132, #110 ) ;
#145 = ORIENTED_EDGE ( 'NONE', *, *, #120, .F. ) ;
#146 = ADVANCED_BREP_SHAPE_REPRESENTATION ( 'TTN041005-E0W', ( #88, #97 ), #183 ) ;
#147 = ORIENTED_EDGE ( 'NONE', *, *, #56, .F. ) ;
#148 = CALENDAR_DATE ( 2019, 16, 7 ) ;
#149 = CARTESIAN_POINT ( 'NONE',  ( 0.0000000000000000000, 0.0000000000000000000, 0.0000000000000000000 ) ) ;
#150 = APPROVAL_PERSON_ORGANIZATION ( #109, #221, #186 ) ;
#151 = CARTESIAN_POINT ( 'NONE',  ( 0.0000000000000000000, -15.31521769187934368, 0.0000000000000000000 ) ) ;
#152 = CIRCLE ( 'NONE', #129, 32.25000000000000000 ) ;
#153 = EDGE_LOOP ( 'NONE', ( #160, #169, #181, #104 ) ) ;
#154 = ORIENTED_EDGE ( 'NONE', *, *, #171, .T. ) ;
#155 = DIRECTION ( 'NONE',  ( 0.0000000000000000000, 0.0000000000000000000, -1.000000000000000000 ) ) ;
#156 = UNCERTAINTY_MEASURE_WITH_UNIT (LENGTH_MEASURE( 1.000000000000000082E-05 ), #62, 'distance_accuracy_value', 'NONE');
#157 =( NAMED_UNIT ( * ) SI_UNIT ( $, .STERADIAN. ) SOLID_ANGLE_UNIT ( ) );
#158 = DATE_AND_TIME ( #25, #189 ) ;
#159 = CIRCLE ( 'NONE', #175, 25.39999999999999858 ) ;
#160 = ORIENTED_EDGE ( 'NONE', *, *, #36, .F. ) ;
#161 = ADVANCED_FACE ( 'NONE', ( #64 ), #134, .T. ) ;
#162 = AXIS2_PLACEMENT_3D ( 'NONE', #16, #198, #155 ) ;
#163 = DATE_AND_TIME ( #148, #55 ) ;
#164 = CIRCLE ( 'NONE', #117, 25.39999999999999858 ) ;
#165 = VERTEX_POINT ( 'NONE', #137 ) ;
#166 = EDGE_CURVE ( 'NONE', #165, #99, #27, .T. ) ;
#167 = APPROVAL_STATUS ( 'not_yet_approved' ) ;
#168 = ORIENTED_EDGE ( 'NONE', *, *, #130, .T. ) ;
#169 = ORIENTED_EDGE ( 'NONE', *, *, #171, .F. ) ;
#170 = CC_DESIGN_PERSON_AND_ORGANIZATION_ASSIGNMENT ( #50, #107, ( #23 ) ) ;
#171 = EDGE_CURVE ( 'NONE', #95, #247, #89, .T. ) ;
#172 = DIRECTION ( 'NONE',  ( -0.0000000000000000000, -1.000000000000000000, -0.0000000000000000000 ) ) ;
#173 = CARTESIAN_POINT ( 'NONE',  ( 0.0000000000000000000, 0.0000000000000000000, 0.0000000000000000000 ) ) ;
#174 = CC_DESIGN_APPROVAL ( #44, ( #23 ) ) ;
#175 = AXIS2_PLACEMENT_3D ( 'NONE', #63, #80, #179 ) ;
#176 = CARTESIAN_POINT ( 'NONE',  ( 0.0000000000000000000, 4.556936192387962770, 0.0000000000000000000 ) ) ;
#177 = DIRECTION ( 'NONE',  ( 0.0000000000000000000, 0.0000000000000000000, -1.000000000000000000 ) ) ;
#178 = AXIS2_PLACEMENT_3D ( 'NONE', #116, #38, #177 ) ;
#179 = DIRECTION ( 'NONE',  ( 0.0000000000000000000, 0.0000000000000000000, -1.000000000000000000 ) ) ;
#180 = ADVANCED_FACE ( 'NONE', ( #239 ), #204, .T. ) ;
#181 = ORIENTED_EDGE ( 'NONE', *, *, #68, .T. ) ;
#182 = EDGE_CURVE ( 'NONE', #205, #76, #152, .T. ) ;
#183 =( GEOMETRIC_REPRESENTATION_CONTEXT ( 3 ) GLOBAL_UNCERTAINTY_ASSIGNED_CONTEXT ( ( #156 ) ) GLOBAL_UNIT_ASSIGNED_CONTEXT ( ( #62, #235, #157 ) ) REPRESENTATION_CONTEXT ( 'NONE', 'WORKASPACE' ) );
#184 = DATE_AND_TIME ( #90, #232 ) ;
#185 = EDGE_CURVE ( 'NONE', #247, #95, #190, .T. ) ;
#186 = APPROVAL_ROLE ( '' ) ;
#187 = CC_DESIGN_APPROVAL ( #26, ( #207 ) ) ;
#188 = DIRECTION ( 'NONE',  ( 1.000000000000000000, 0.0000000000000000000, 0.0000000000000000000 ) ) ;
#189 = LOCAL_TIME ( 9, 4, 57.00000000000000000, #238 ) ;
#190 = CIRCLE ( 'NONE', #215, 25.15000000000000568 ) ;
#191 = CC_DESIGN_PERSON_AND_ORGANIZATION_ASSIGNMENT ( #13, #243, ( #31 ) ) ;
#192 = CARTESIAN_POINT ( 'NONE',  ( 3.110602869834276865E-15, 0.0000000000000000000, 25.39999999999999858 ) ) ;
#193 = COORDINATED_UNIVERSAL_TIME_OFFSET ( 5, 0, .BEHIND. ) ;
#194 = CARTESIAN_POINT ( 'NONE',  ( 0.0000000000000000000, 0.0000000000000000000, 25.15000000000000568 ) ) ;
#195 = CONICAL_SURFACE ( 'NONE', #30, 25.15000000000000568, 0.7853981633974621568 ) ;
#196 = CARTESIAN_POINT ( 'NONE',  ( 3.079986699855593867E-15, 0.0000000000000000000, -25.15000000000000568 ) ) ;
#197 = DIRECTION ( 'NONE',  ( 0.0000000000000000000, -1.000000000000000000, -0.0000000000000000000 ) ) ;
#198 = DIRECTION ( 'NONE',  ( 0.0000000000000000000, 1.000000000000000000, 0.0000000000000000000 ) ) ;
#199 = CC_DESIGN_DATE_AND_TIME_ASSIGNMENT ( #125, #106, ( #23 ) ) ;
#200 = CARTESIAN_POINT ( 'NONE',  ( 0.0000000000000000000, 0.2499999999999863998, 0.0000000000000000000 ) ) ;
#201 = EDGE_CURVE ( 'NONE', #76, #99, #234, .T. ) ;
#202 = ORIENTED_EDGE ( 'NONE', *, *, #209, .T. ) ;
#203 = APPROVAL_STATUS ( 'not_yet_approved' ) ;
#204 = CYLINDRICAL_SURFACE ( 'NONE', #178, 25.39999999999999858 ) ;
#205 = VERTEX_POINT ( 'NONE', #230 ) ;
#206 = CALENDAR_DATE ( 2019, 16, 7 ) ;
#207 = PRODUCT_DEFINITION_FORMATION_WITH_SPECIFIED_SOURCE ( 'ANY', '', #31, .NOT_KNOWN. ) ;
#208 = ORIENTED_EDGE ( 'NONE', *, *, #68, .F. ) ;
#209 = EDGE_CURVE ( 'NONE', #99, #165, #164, .T. ) ;
#210 = DIRECTION ( 'NONE',  ( -1.224646799147353207E-16, 0.0000000000000000000, -1.000000000000000000 ) ) ;
#211 = CYLINDRICAL_SURFACE ( 'NONE', #237, 25.39999999999999858 ) ;
#212 = COORDINATED_UNIVERSAL_TIME_OFFSET ( 5, 0, .BEHIND. ) ;
#213 = CC_DESIGN_PERSON_AND_ORGANIZATION_ASSIGNMENT ( #136, #10, ( #207 ) ) ;
#214 = ORIENTED_EDGE ( 'NONE', *, *, #166, .T. ) ;
#215 = AXIS2_PLACEMENT_3D ( 'NONE', #39, #2, #79 ) ;
#216 = DIRECTION ( 'NONE',  ( -1.000000000000000000, 0.0000000000000000000, 0.0000000000000000000 ) ) ;
#217 = DIRECTION ( 'NONE',  ( 0.0000000000000000000, 0.0000000000000000000, -1.000000000000000000 ) ) ;
#218 = APPLICATION_CONTEXT ( 'configuration controlled 3d designs of mechanical parts and assemblies' ) ;
#219 = PERSON_AND_ORGANIZATION ( #92, #69 ) ;
#220 = APPLICATION_PROTOCOL_DEFINITION ( 'international standard', 'config_control_design', 1994, #218 ) ;
#221 = APPROVAL ( #203, 'UNSPECIFIED' ) ;
#222 = APPROVAL_DATE_TIME ( #184, #221 ) ;
#223 = VECTOR ( 'NONE', #172, 1000.000000000000000 ) ;
#224 = PERSON_AND_ORGANIZATION ( #92, #69 ) ;
#225 = FACE_OUTER_BOUND ( 'NONE', #46, .T. ) ;
#226 = DIRECTION ( 'NONE',  ( 0.0000000000000000000, 0.0000000000000000000, -1.000000000000000000 ) ) ;
#227 = PERSON_AND_ORGANIZATION ( #92, #69 ) ;
#228 = APPROVAL_DATE_TIME ( #236, #44 ) ;
#229 = CARTESIAN_POINT ( 'NONE',  ( 0.0000000000000000000, 4.556936192387963658, -25.39999999999999503 ) ) ;
#230 = CARTESIAN_POINT ( 'NONE',  ( 0.0000000000000000000, 16.93478230812065632, -1.974742963625107025E-15 ) ) ;
#231 = CC_DESIGN_APPROVAL ( #221, ( #251 ) ) ;
#232 = LOCAL_TIME ( 9, 4, 57.00000000000000000, #193 ) ;
#233 = CARTESIAN_POINT ( 'NONE',  ( 0.0000000000000000000, 0.0000000000000000000, 0.0000000000000000000 ) ) ;
#234 = LINE ( 'NONE', #60, #84 ) ;
#235 =( NAMED_UNIT ( * ) PLANE_ANGLE_UNIT ( ) SI_UNIT ( $, .RADIAN. ) );
#236 = DATE_AND_TIME ( #206, #58 ) ;
#237 = AXIS2_PLACEMENT_3D ( 'NONE', #149, #114, #248 ) ;
#238 = COORDINATED_UNIVERSAL_TIME_OFFSET ( 5, 0, .BEHIND. ) ;
#239 = FACE_OUTER_BOUND ( 'NONE', #121, .T. ) ;
#240 = CIRCLE ( 'NONE', #111, 25.39999999999999858 ) ;
#241 = EDGE_LOOP ( 'NONE', ( #141, #128, #145 ) ) ;
#242 = LOCAL_TIME ( 9, 4, 57.00000000000000000, #42 ) ;
#243 = PERSON_AND_ORGANIZATION_ROLE ( 'design_owner' ) ;
#244 = APPLICATION_PROTOCOL_DEFINITION ( 'international standard', 'config_control_design', 1994, #24 ) ;
#245 = CC_DESIGN_PERSON_AND_ORGANIZATION_ASSIGNMENT ( #224, #51, ( #207 ) ) ;
#246 = ORIENTED_EDGE ( 'NONE', *, *, #185, .F. ) ;
#247 = VERTEX_POINT ( 'NONE', #18 ) ;
#248 = DIRECTION ( 'NONE',  ( 0.0000000000000000000, 0.0000000000000000000, -1.000000000000000000 ) ) ;
#249 = COORDINATED_UNIVERSAL_TIME_OFFSET ( 5, 0, .BEHIND. ) ;
#250 = CARTESIAN_POINT ( 'NONE',  ( 0.0000000000000000000, 0.0000000000000000000, 0.0000000000000000000 ) ) ;
#251 = SECURITY_CLASSIFICATION ( '', '', #8 ) ;
ENDSEC;
END-ISO-10303-21;
