ISO-10303-21;
HEADER;
FILE_DESCRIPTION (( 'STEP AP203' ),
    '1' );
FILE_NAME ('Web Model 11903_11903.step',
    '2019-04-22T14:57:13',
    ( '' ),
    ( '' ),
    'SwSTEP 2.0',
    'SolidWorks 2018',
    '' );
FILE_SCHEMA (( 'CONFIG_CONTROL_DESIGN' ));
ENDSEC;

DATA;
#1 = DATE_AND_TIME ( #21, #250 ) ;
#2 = ORIENTED_EDGE ( 'NONE', *, *, #115, .F. ) ;
#3 = DIRECTION ( 'NONE',  ( 0.0000000000000000000, 0.0000000000000000000, -1.000000000000000000 ) ) ;
#4 = EDGE_CURVE ( 'NONE', #184, #9, #137, .T. ) ;
#5 = APPROVAL_PERSON_ORGANIZATION ( #66, #78, #120 ) ;
#6 = FACE_OUTER_BOUND ( 'NONE', #190, .T. ) ;
#7 = AXIS2_PLACEMENT_3D ( 'NONE', #163, #264, #8 ) ;
#8 = DIRECTION ( 'NONE',  ( 0.0000000000000000000, 0.0000000000000000000, -1.000000000000000000 ) ) ;
#9 = VERTEX_POINT ( 'NONE', #215 ) ;
#10 = APPROVAL_STATUS ( 'not_yet_approved' ) ;
#11 = PLANE ( 'NONE',  #173 ) ;
#12 = DIRECTION ( 'NONE',  ( -1.000000000000000000, -0.0000000000000000000, -0.0000000000000000000 ) ) ;
#13 = PERSON_AND_ORGANIZATION_ROLE ( 'creator' ) ;
#14 = DIRECTION ( 'NONE',  ( 0.0000000000000000000, 0.0000000000000000000, -1.000000000000000000 ) ) ;
#15 = PERSON_AND_ORGANIZATION ( #97, #119 ) ;
#16 = CYLINDRICAL_SURFACE ( 'NONE', #273, 12.50000000000000000 ) ;
#17 = VERTEX_POINT ( 'NONE', #29 ) ;
#18 = CARTESIAN_POINT ( 'NONE',  ( 2.500000000000000000, 0.0000000000000000000, 0.0000000000000000000 ) ) ;
#19 = ADVANCED_FACE ( 'NONE', ( #145 ), #49, .F. ) ;
#20 = CARTESIAN_POINT ( 'NONE',  ( -2.450000000000000178, 1.530808498934191521E-15, 12.50000000000000000 ) ) ;
#21 = CALENDAR_DATE ( 2019, 22, 4 ) ;
#22 = EDGE_LOOP ( 'NONE', ( #191, #125, #110, #2 ) ) ;
#23 = LINE ( 'NONE', #252, #176 ) ;
#24 = CLOSED_SHELL ( 'NONE', ( #56, #103, #231, #209, #124, #19, #84, #146 ) ) ;
#25 = DIRECTION ( 'NONE',  ( 1.000000000000000000, 0.0000000000000000000, 0.0000000000000000000 ) ) ;
#26 = EDGE_CURVE ( 'NONE', #181, #36, #61, .T. ) ;
#27 = DATE_AND_TIME ( #232, #192 ) ;
#28 = AXIS2_PLACEMENT_3D ( 'NONE', #60, #256, #148 ) ;
#29 = CARTESIAN_POINT ( 'NONE',  ( 2.450000000000003730, 0.0000000000000000000, 12.50000000000000000 ) ) ;
#30 =( LENGTH_UNIT ( ) NAMED_UNIT ( * ) SI_UNIT ( .MILLI., .METRE. ) );
#31 = CONICAL_SURFACE ( 'NONE', #107, 12.45000000000000639, 0.7853981633974309595 ) ;
#32 = CARTESIAN_POINT ( 'NONE',  ( 2.500000000000000000, 1.527746881936323576E-15, -12.45000000000000639 ) ) ;
#33 = UNCERTAINTY_MEASURE_WITH_UNIT (LENGTH_MEASURE( 1.000000000000000082E-05 ), #30, 'distance_accuracy_value', 'NONE');
#34 = CARTESIAN_POINT ( 'NONE',  ( 2.500000000000000000, 0.0000000000000000000, 12.45000000000000639 ) ) ;
#35 = COORDINATED_UNIVERSAL_TIME_OFFSET ( 5, 0, .BEHIND. ) ;
#36 = VERTEX_POINT ( 'NONE', #159 ) ;
#37 = DIRECTION ( 'NONE',  ( -1.000000000000000000, -0.0000000000000000000, -0.0000000000000000000 ) ) ;
#38 = DIRECTION ( 'NONE',  ( 0.0000000000000000000, 0.0000000000000000000, -1.000000000000000000 ) ) ;
#39 = VERTEX_POINT ( 'NONE', #32 ) ;
#40 = APPROVAL_DATE_TIME ( #1, #78 ) ;
#41 = AXIS2_PLACEMENT_3D ( 'NONE', #111, #131, #91 ) ;
#42 = CALENDAR_DATE ( 2019, 22, 4 ) ;
#43 = DIRECTION ( 'NONE',  ( -0.7071067811865597852, 8.659560562354782482E-17, -0.7071067811865352493 ) ) ;
#44 = CIRCLE ( 'NONE', #7, 12.45000000000000639 ) ;
#45 = FACE_OUTER_BOUND ( 'NONE', #64, .T. ) ;
#46 = ORIENTED_EDGE ( 'NONE', *, *, #196, .T. ) ;
#47 = SHAPE_DEFINITION_REPRESENTATION ( #221, #274 ) ;
#48 = CONICAL_SURFACE ( 'NONE', #118, 12.50000000000000000, 0.7853981633974309595 ) ;
#49 = PLANE ( 'NONE',  #135 ) ;
#50 = CIRCLE ( 'NONE', #94, 12.50000000000000000 ) ;
#51 = EDGE_CURVE ( 'NONE', #140, #39, #44, .T. ) ;
#52 = APPROVAL_DATE_TIME ( #27, #112 ) ;
#53 = AXIS2_PLACEMENT_3D ( 'NONE', #87, #132, #267 ) ;
#54 = DIRECTION ( 'NONE',  ( 1.000000000000000000, -0.0000000000000000000, -0.0000000000000000000 ) ) ;
#55 = PERSON_AND_ORGANIZATION_ROLE ( 'creator' ) ;
#56 = ADVANCED_FACE ( 'NONE', ( #153 ), #160, .T. ) ;
#57 = DIRECTION ( 'NONE',  ( 0.7071067811865597852, 8.659560562354782482E-17, 0.7071067811865352493 ) ) ;
#58 = CYLINDRICAL_SURFACE ( 'NONE', #28, 12.50000000000000000 ) ;
#59 = CC_DESIGN_DATE_AND_TIME_ASSIGNMENT ( #128, #177, ( #183 ) ) ;
#60 = CARTESIAN_POINT ( 'NONE',  ( 2.500000000000000000, 0.0000000000000000000, 0.0000000000000000000 ) ) ;
#61 = CIRCLE ( 'NONE', #114, 12.45000000000000284 ) ;
#62 = EDGE_CURVE ( 'NONE', #17, #89, #168, .T. ) ;
#63 = ORIENTED_EDGE ( 'NONE', *, *, #106, .F. ) ;
#64 = EDGE_LOOP ( 'NONE', ( #251, #271, #213, #199 ) ) ;
#65 = DIRECTION ( 'NONE',  ( 0.0000000000000000000, 0.0000000000000000000, -1.000000000000000000 ) ) ;
#66 = PERSON_AND_ORGANIZATION ( #97, #119 ) ;
#67 = AXIS2_PLACEMENT_3D ( 'NONE', #69, #70, #65 ) ;
#68 = APPROVAL ( #206, 'UNSPECIFIED' ) ;
#69 = CARTESIAN_POINT ( 'NONE',  ( -2.450000000000000178, 0.0000000000000000000, 0.0000000000000000000 ) ) ;
#70 = DIRECTION ( 'NONE',  ( 1.000000000000000000, -0.0000000000000000000, -0.0000000000000000000 ) ) ;
#71 = AXIS2_PLACEMENT_3D ( 'NONE', #116, #187, #203 ) ;
#72 = PERSON_AND_ORGANIZATION ( #97, #119 ) ;
#73 =( NAMED_UNIT ( * ) SI_UNIT ( $, .STERADIAN. ) SOLID_ANGLE_UNIT ( ) );
#74 = ORIENTED_EDGE ( 'NONE', *, *, #123, .F. ) ;
#75 = DATE_TIME_ROLE ( 'creation_date' ) ;
#76 = APPLICATION_CONTEXT ( 'configuration controlled 3d designs of mechanical parts and assemblies' ) ;
#77 = DIRECTION ( 'NONE',  ( -1.000000000000000000, 0.0000000000000000000, 0.0000000000000000000 ) ) ;
#78 = APPROVAL ( #234, 'UNSPECIFIED' ) ;
#79 = CIRCLE ( 'NONE', #134, 12.50000000000000000 ) ;
#80 = EDGE_LOOP ( 'NONE', ( #122, #242 ) ) ;
#81 = DIRECTION ( 'NONE',  ( 1.000000000000000000, 0.0000000000000000000, 0.0000000000000000000 ) ) ;
#82 = EDGE_CURVE ( 'NONE', #9, #89, #149, .T. ) ;
#83 = DIRECTION ( 'NONE',  ( 1.000000000000000000, -0.0000000000000000000, -0.0000000000000000000 ) ) ;
#84 = ADVANCED_FACE ( 'NONE', ( #238 ), #129, .T. ) ;
#85 = EDGE_LOOP ( 'NONE', ( #235, #46, #104, #161 ) ) ;
#86 = PRODUCT_RELATED_PRODUCT_CATEGORY ( 'detail', '', ( #139 ) ) ;
#87 = CARTESIAN_POINT ( 'NONE',  ( 0.0000000000000000000, 0.0000000000000000000, 0.0000000000000000000 ) ) ;
#88 = COORDINATED_UNIVERSAL_TIME_OFFSET ( 5, 0, .BEHIND. ) ;
#89 = VERTEX_POINT ( 'NONE', #144 ) ;
#90 = CC_DESIGN_APPROVAL ( #68, ( #151 ) ) ;
#91 = DIRECTION ( 'NONE',  ( 0.0000000000000000000, 0.0000000000000000000, -1.000000000000000000 ) ) ;
#92 = LOCAL_TIME ( 10, 57, 13.00000000000000000, #133 ) ;
#93 = ORIENTED_EDGE ( 'NONE', *, *, #211, .T. ) ;
#94 = AXIS2_PLACEMENT_3D ( 'NONE', #204, #201, #188 ) ;
#95 = DIRECTION ( 'NONE',  ( 1.000000000000000000, 0.0000000000000000000, 0.0000000000000000000 ) ) ;
#96 = CC_DESIGN_APPROVAL ( #112, ( #165 ) ) ;
#97 = PERSON ( 'UNSPECIFIED', 'UNSPECIFIED', 'UNSPECIFIED', ('UNSPECIFIED'), ('UNSPECIFIED'), ('UNSPECIFIED') ) ;
#98 = VECTOR ( 'NONE', #43, 1000.000000000000000 ) ;
#99 = FACE_OUTER_BOUND ( 'NONE', #80, .T. ) ;
#100 = PERSON_AND_ORGANIZATION_ROLE ( 'classification_officer' ) ;
#101 = CARTESIAN_POINT ( 'NONE',  ( 2.500000000000000000, 0.0000000000000000000, 12.45000000000000639 ) ) ;
#102 = LINE ( 'NONE', #20, #226 ) ;
#103 = ADVANCED_FACE ( 'NONE', ( #216 ), #31, .T. ) ;
#104 = ORIENTED_EDGE ( 'NONE', *, *, #82, .F. ) ;
#105 = CARTESIAN_POINT ( 'NONE',  ( -2.450000000000000178, 0.0000000000000000000, 0.0000000000000000000 ) ) ;
#106 = EDGE_CURVE ( 'NONE', #140, #17, #171, .T. ) ;
#107 = AXIS2_PLACEMENT_3D ( 'NONE', #243, #244, #185 ) ;
#108 = CC_DESIGN_APPROVAL ( #78, ( #183 ) ) ;
#109 = AXIS2_PLACEMENT_3D ( 'NONE', #229, #77, #207 ) ;
#110 = ORIENTED_EDGE ( 'NONE', *, *, #106, .T. ) ;
#111 = CARTESIAN_POINT ( 'NONE',  ( -2.500000000000000000, 0.0000000000000000000, 0.0000000000000000000 ) ) ;
#112 = APPROVAL ( #10, 'UNSPECIFIED' ) ;
#113 = LOCAL_TIME ( 10, 57, 13.00000000000000000, #88 ) ;
#114 = AXIS2_PLACEMENT_3D ( 'NONE', #200, #37, #158 ) ;
#115 = EDGE_CURVE ( 'NONE', #184, #17, #50, .T. ) ;
#116 = CARTESIAN_POINT ( 'NONE',  ( 2.500000000000000000, 0.0000000000000000000, 0.0000000000000000000 ) ) ;
#117 = ORIENTED_EDGE ( 'NONE', *, *, #4, .T. ) ;
#118 = AXIS2_PLACEMENT_3D ( 'NONE', #105, #83, #121 ) ;
#119 = ORGANIZATION ( 'UNSPECIFIED', 'UNSPECIFIED', '' ) ;
#120 = APPROVAL_ROLE ( '' ) ;
#121 = DIRECTION ( 'NONE',  ( 0.0000000000000000000, 0.0000000000000000000, -1.000000000000000000 ) ) ;
#122 = ORIENTED_EDGE ( 'NONE', *, *, #51, .T. ) ;
#123 = EDGE_CURVE ( 'NONE', #17, #184, #157, .T. ) ;
#124 = ADVANCED_FACE ( 'NONE', ( #99 ), #11, .T. ) ;
#125 = ORIENTED_EDGE ( 'NONE', *, *, #51, .F. ) ;
#126 = CC_DESIGN_PERSON_AND_ORGANIZATION_ASSIGNMENT ( #72, #169, ( #139 ) ) ;
#127 =( GEOMETRIC_REPRESENTATION_CONTEXT ( 3 ) GLOBAL_UNCERTAINTY_ASSIGNED_CONTEXT ( ( #33 ) ) GLOBAL_UNIT_ASSIGNED_CONTEXT ( ( #30, #219, #73 ) ) REPRESENTATION_CONTEXT ( 'NONE', 'WORKASPACE' ) );
#128 = DATE_AND_TIME ( #189, #92 ) ;
#129 = CONICAL_SURFACE ( 'NONE', #71, 12.45000000000000639, 0.7853981633974309595 ) ;
#130 = ORIENTED_EDGE ( 'NONE', *, *, #123, .T. ) ;
#131 = DIRECTION ( 'NONE',  ( -1.000000000000000000, -0.0000000000000000000, -0.0000000000000000000 ) ) ;
#132 = DIRECTION ( 'NONE',  ( 0.0000000000000000000, 0.0000000000000000000, 1.000000000000000000 ) ) ;
#133 = COORDINATED_UNIVERSAL_TIME_OFFSET ( 5, 0, .BEHIND. ) ;
#134 = AXIS2_PLACEMENT_3D ( 'NONE', #248, #268, #14 ) ;
#135 = AXIS2_PLACEMENT_3D ( 'NONE', #197, #95, #3 ) ;
#136 = APPROVAL_DATE_TIME ( #205, #68 ) ;
#137 = LINE ( 'NONE', #258, #210 ) ;
#138 = CC_DESIGN_PERSON_AND_ORGANIZATION_ASSIGNMENT ( #180, #55, ( #165 ) ) ;
#139 = PRODUCT ( 'Web Model 11903_11903', 'Web Model 11903_11903', '', ( #218 ) ) ;
#140 = VERTEX_POINT ( 'NONE', #101 ) ;
#141 = CARTESIAN_POINT ( 'NONE',  ( -2.450000000000000178, 0.0000000000000000000, 0.0000000000000000000 ) ) ;
#142 = APPLICATION_PROTOCOL_DEFINITION ( 'international standard', 'config_control_design', 1994, #164 ) ;
#143 = DIRECTION ( 'NONE',  ( -0.7071067811865597852, 0.0000000000000000000, 0.7071067811865352493 ) ) ;
#144 = CARTESIAN_POINT ( 'NONE',  ( -2.450000000000000178, 0.0000000000000000000, 12.50000000000000000 ) ) ;
#145 = FACE_OUTER_BOUND ( 'NONE', #154, .T. ) ;
#146 = ADVANCED_FACE ( 'NONE', ( #6 ), #48, .T. ) ;
#147 = ORIENTED_EDGE ( 'NONE', *, *, #82, .T. ) ;
#148 = DIRECTION ( 'NONE',  ( 0.0000000000000000000, 0.0000000000000000000, 1.000000000000000000 ) ) ;
#149 = CIRCLE ( 'NONE', #208, 12.50000000000000000 ) ;
#150 = EDGE_LOOP ( 'NONE', ( #130, #117, #147, #178 ) ) ;
#151 = PRODUCT_DEFINITION_FORMATION_WITH_SPECIFIED_SOURCE ( 'ANY', '', #139, .NOT_KNOWN. ) ;
#152 = EDGE_CURVE ( 'NONE', #89, #9, #79, .T. ) ;
#153 = FACE_OUTER_BOUND ( 'NONE', #85, .T. ) ;
#154 = EDGE_LOOP ( 'NONE', ( #172, #186 ) ) ;
#155 = EDGE_CURVE ( 'NONE', #39, #140, #269, .T. ) ;
#156 = COORDINATED_UNIVERSAL_TIME_OFFSET ( 5, 0, .BEHIND. ) ;
#157 = CIRCLE ( 'NONE', #109, 12.50000000000000000 ) ;
#158 = DIRECTION ( 'NONE',  ( 0.0000000000000000000, 0.0000000000000000000, -1.000000000000000000 ) ) ;
#159 = CARTESIAN_POINT ( 'NONE',  ( -2.500000000000000000, 0.0000000000000000000, -12.45000000000000284 ) ) ;
#160 = CONICAL_SURFACE ( 'NONE', #67, 12.50000000000000000, 0.7853981633974309595 ) ;
#161 = ORIENTED_EDGE ( 'NONE', *, *, #275, .F. ) ;
#162 = CC_DESIGN_PERSON_AND_ORGANIZATION_ASSIGNMENT ( #194, #224, ( #151 ) ) ;
#163 = CARTESIAN_POINT ( 'NONE',  ( 2.500000000000000000, 0.0000000000000000000, 0.0000000000000000000 ) ) ;
#164 = APPLICATION_CONTEXT ( 'configuration controlled 3d designs of mechanical parts and assemblies' ) ;
#165 = PRODUCT_DEFINITION ( 'UNKNOWN', '', #151, #198 ) ;
#166 = LOCAL_TIME ( 10, 57, 13.00000000000000000, #241 ) ;
#167 = APPROVAL_ROLE ( '' ) ;
#168 = LINE ( 'NONE', #223, #262 ) ;
#169 = PERSON_AND_ORGANIZATION_ROLE ( 'design_owner' ) ;
#170 = CARTESIAN_POINT ( 'NONE',  ( -2.500000000000000000, 1.527746881936323379E-15, 12.45000000000000284 ) ) ;
#171 = LINE ( 'NONE', #34, #246 ) ;
#172 = ORIENTED_EDGE ( 'NONE', *, *, #239, .T. ) ;
#173 = AXIS2_PLACEMENT_3D ( 'NONE', #18, #81, #270 ) ;
#174 = CARTESIAN_POINT ( 'NONE',  ( 2.450000000000003730, 1.530808498934191521E-15, -12.50000000000000000 ) ) ;
#175 = DIRECTION ( 'NONE',  ( 0.7071067811865597852, 0.0000000000000000000, -0.7071067811865352493 ) ) ;
#176 = VECTOR ( 'NONE', #175, 1000.000000000000000 ) ;
#177 = DATE_TIME_ROLE ( 'classification_date' ) ;
#178 = ORIENTED_EDGE ( 'NONE', *, *, #62, .F. ) ;
#179 = CC_DESIGN_SECURITY_CLASSIFICATION ( #183, ( #151 ) ) ;
#180 = PERSON_AND_ORGANIZATION ( #97, #119 ) ;
#181 = VERTEX_POINT ( 'NONE', #170 ) ;
#182 = PERSON_AND_ORGANIZATION ( #97, #119 ) ;
#183 = SECURITY_CLASSIFICATION ( '', '', #202 ) ;
#184 = VERTEX_POINT ( 'NONE', #174 ) ;
#185 = DIRECTION ( 'NONE',  ( 0.0000000000000000000, 0.0000000000000000000, 1.000000000000000000 ) ) ;
#186 = ORIENTED_EDGE ( 'NONE', *, *, #26, .T. ) ;
#187 = DIRECTION ( 'NONE',  ( -1.000000000000000000, 0.0000000000000000000, 0.0000000000000000000 ) ) ;
#188 = DIRECTION ( 'NONE',  ( 0.0000000000000000000, 0.0000000000000000000, -1.000000000000000000 ) ) ;
#189 = CALENDAR_DATE ( 2019, 22, 4 ) ;
#190 = EDGE_LOOP ( 'NONE', ( #195, #233, #217, #263 ) ) ;
#191 = ORIENTED_EDGE ( 'NONE', *, *, #211, .F. ) ;
#192 = LOCAL_TIME ( 10, 57, 13.00000000000000000, #156 ) ;
#193 = FACE_OUTER_BOUND ( 'NONE', #150, .T. ) ;
#194 = PERSON_AND_ORGANIZATION ( #97, #119 ) ;
#195 = ORIENTED_EDGE ( 'NONE', *, *, #196, .F. ) ;
#196 = EDGE_CURVE ( 'NONE', #181, #89, #102, .T. ) ;
#197 = CARTESIAN_POINT ( 'NONE',  ( -2.500000000000000000, 0.0000000000000000000, 0.0000000000000000000 ) ) ;
#198 = DESIGN_CONTEXT ( 'detailed design', #164, 'design' ) ;
#199 = ORIENTED_EDGE ( 'NONE', *, *, #152, .T. ) ;
#200 = CARTESIAN_POINT ( 'NONE',  ( -2.500000000000000000, 0.0000000000000000000, 0.0000000000000000000 ) ) ;
#201 = DIRECTION ( 'NONE',  ( -1.000000000000000000, 0.0000000000000000000, 0.0000000000000000000 ) ) ;
#202 = SECURITY_CLASSIFICATION_LEVEL ( 'unclassified' ) ;
#203 = DIRECTION ( 'NONE',  ( 0.0000000000000000000, 0.0000000000000000000, 1.000000000000000000 ) ) ;
#204 = CARTESIAN_POINT ( 'NONE',  ( 2.450000000000003730, 0.0000000000000000000, 0.0000000000000000000 ) ) ;
#205 = DATE_AND_TIME ( #261, #166 ) ;
#206 = APPROVAL_STATUS ( 'not_yet_approved' ) ;
#207 = DIRECTION ( 'NONE',  ( 0.0000000000000000000, 0.0000000000000000000, -1.000000000000000000 ) ) ;
#208 = AXIS2_PLACEMENT_3D ( 'NONE', #141, #54, #38 ) ;
#209 = ADVANCED_FACE ( 'NONE', ( #45 ), #16, .T. ) ;
#210 = VECTOR ( 'NONE', #260, 1000.000000000000000 ) ;
#211 = EDGE_CURVE ( 'NONE', #39, #184, #257, .T. ) ;
#212 = CARTESIAN_POINT ( 'NONE',  ( 2.500000000000000000, 1.524685264938455434E-15, -12.45000000000000639 ) ) ;
#213 = ORIENTED_EDGE ( 'NONE', *, *, #62, .T. ) ;
#214 = DATE_AND_TIME ( #42, #113 ) ;
#215 = CARTESIAN_POINT ( 'NONE',  ( -2.450000000000000178, 1.530808498934191521E-15, -12.50000000000000000 ) ) ;
#216 = FACE_OUTER_BOUND ( 'NONE', #227, .T. ) ;
#217 = ORIENTED_EDGE ( 'NONE', *, *, #275, .T. ) ;
#218 = MECHANICAL_CONTEXT ( 'NONE', #76, 'mechanical' ) ;
#219 =( NAMED_UNIT ( * ) PLANE_ANGLE_UNIT ( ) SI_UNIT ( $, .RADIAN. ) );
#220 = CIRCLE ( 'NONE', #41, 12.45000000000000284 ) ;
#221 = PRODUCT_DEFINITION_SHAPE ( 'NONE', 'NONE',  #165 ) ;
#222 = APPROVAL_ROLE ( '' ) ;
#223 = CARTESIAN_POINT ( 'NONE',  ( 2.500000000000000000, 0.0000000000000000000, 12.50000000000000000 ) ) ;
#224 = PERSON_AND_ORGANIZATION_ROLE ( 'design_supplier' ) ;
#225 = DIRECTION ( 'NONE',  ( -1.000000000000000000, -0.0000000000000000000, -0.0000000000000000000 ) ) ;
#226 = VECTOR ( 'NONE', #57, 1000.000000000000000 ) ;
#227 = EDGE_LOOP ( 'NONE', ( #254, #93, #74, #63 ) ) ;
#228 = MANIFOLD_SOLID_BREP ( '11878-1-solid1', #24 ) ;
#229 = CARTESIAN_POINT ( 'NONE',  ( 2.450000000000003730, 0.0000000000000000000, 0.0000000000000000000 ) ) ;
#230 = CC_DESIGN_PERSON_AND_ORGANIZATION_ASSIGNMENT ( #237, #13, ( #151 ) ) ;
#231 = ADVANCED_FACE ( 'NONE', ( #193 ), #58, .T. ) ;
#232 = CALENDAR_DATE ( 2019, 22, 4 ) ;
#233 = ORIENTED_EDGE ( 'NONE', *, *, #239, .F. ) ;
#234 = APPROVAL_STATUS ( 'not_yet_approved' ) ;
#235 = ORIENTED_EDGE ( 'NONE', *, *, #26, .F. ) ;
#236 = PERSON_AND_ORGANIZATION ( #97, #119 ) ;
#237 = PERSON_AND_ORGANIZATION ( #97, #119 ) ;
#238 = FACE_OUTER_BOUND ( 'NONE', #22, .T. ) ;
#239 = EDGE_CURVE ( 'NONE', #36, #181, #220, .T. ) ;
#240 = CC_DESIGN_PERSON_AND_ORGANIZATION_ASSIGNMENT ( #15, #100, ( #183 ) ) ;
#241 = COORDINATED_UNIVERSAL_TIME_OFFSET ( 5, 0, .BEHIND. ) ;
#242 = ORIENTED_EDGE ( 'NONE', *, *, #155, .T. ) ;
#243 = CARTESIAN_POINT ( 'NONE',  ( 2.500000000000000000, 0.0000000000000000000, 0.0000000000000000000 ) ) ;
#244 = DIRECTION ( 'NONE',  ( -1.000000000000000000, 0.0000000000000000000, 0.0000000000000000000 ) ) ;
#245 = APPROVAL_PERSON_ORGANIZATION ( #182, #68, #222 ) ;
#246 = VECTOR ( 'NONE', #143, 1000.000000000000000 ) ;
#247 = CARTESIAN_POINT ( 'NONE',  ( 2.500000000000000000, 0.0000000000000000000, 0.0000000000000000000 ) ) ;
#248 = CARTESIAN_POINT ( 'NONE',  ( -2.450000000000000178, 0.0000000000000000000, 0.0000000000000000000 ) ) ;
#249 = CARTESIAN_POINT ( 'NONE',  ( 2.500000000000000000, 0.0000000000000000000, 0.0000000000000000000 ) ) ;
#250 = LOCAL_TIME ( 10, 57, 13.00000000000000000, #35 ) ;
#251 = ORIENTED_EDGE ( 'NONE', *, *, #4, .F. ) ;
#252 = CARTESIAN_POINT ( 'NONE',  ( -2.450000000000000178, 0.0000000000000000000, -12.50000000000000000 ) ) ;
#253 = CC_DESIGN_DATE_AND_TIME_ASSIGNMENT ( #214, #75, ( #165 ) ) ;
#254 = ORIENTED_EDGE ( 'NONE', *, *, #155, .F. ) ;
#255 = DIRECTION ( 'NONE',  ( 0.0000000000000000000, 0.0000000000000000000, 1.000000000000000000 ) ) ;
#256 = DIRECTION ( 'NONE',  ( -1.000000000000000000, -0.0000000000000000000, -0.0000000000000000000 ) ) ;
#257 = LINE ( 'NONE', #212, #98 ) ;
#258 = CARTESIAN_POINT ( 'NONE',  ( 2.500000000000000000, 1.530808498934191521E-15, -12.50000000000000000 ) ) ;
#259 = AXIS2_PLACEMENT_3D ( 'NONE', #247, #25, #272 ) ;
#260 = DIRECTION ( 'NONE',  ( -1.000000000000000000, -0.0000000000000000000, -0.0000000000000000000 ) ) ;
#261 = CALENDAR_DATE ( 2019, 22, 4 ) ;
#262 = VECTOR ( 'NONE', #12, 1000.000000000000000 ) ;
#263 = ORIENTED_EDGE ( 'NONE', *, *, #152, .F. ) ;
#264 = DIRECTION ( 'NONE',  ( 1.000000000000000000, 0.0000000000000000000, 0.0000000000000000000 ) ) ;
#265 = APPLICATION_PROTOCOL_DEFINITION ( 'international standard', 'config_control_design', 1994, #76 ) ;
#266 = APPROVAL_PERSON_ORGANIZATION ( #236, #112, #167 ) ;
#267 = DIRECTION ( 'NONE',  ( 1.000000000000000000, 0.0000000000000000000, 0.0000000000000000000 ) ) ;
#268 = DIRECTION ( 'NONE',  ( 1.000000000000000000, -0.0000000000000000000, -0.0000000000000000000 ) ) ;
#269 = CIRCLE ( 'NONE', #259, 12.45000000000000639 ) ;
#270 = DIRECTION ( 'NONE',  ( 0.0000000000000000000, 0.0000000000000000000, -1.000000000000000000 ) ) ;
#271 = ORIENTED_EDGE ( 'NONE', *, *, #115, .T. ) ;
#272 = DIRECTION ( 'NONE',  ( 0.0000000000000000000, 0.0000000000000000000, -1.000000000000000000 ) ) ;
#273 = AXIS2_PLACEMENT_3D ( 'NONE', #249, #225, #255 ) ;
#274 = ADVANCED_BREP_SHAPE_REPRESENTATION ( 'Web Model 11903_11903', ( #228, #53 ), #127 ) ;
#275 = EDGE_CURVE ( 'NONE', #36, #9, #23, .T. ) ;
ENDSEC;
END-ISO-10303-21;
