ISO-10303-21;
HEADER;
FILE_DESCRIPTION (( 'STEP AP203' ),
    '1' );
FILE_NAME ('Web Model 46698.STEP',
    '2017-01-31T15:19:35',
    ( '' ),
    ( '' ),
    'SwSTEP 2.0',
    'SolidWorks 2016',
    '' );
FILE_SCHEMA (( 'CONFIG_CONTROL_DESIGN' ));
ENDSEC;

DATA;
#1 = APPROVAL_DATE_TIME ( #205, #198 ) ;
#2 = LINE ( 'NONE', #66, #127 ) ;
#3 = VERTEX_POINT ( 'NONE', #132 ) ;
#4 = CALENDAR_DATE ( 2017, 31, 1 ) ;
#5 = EDGE_CURVE ( 'NONE', #44, #88, #192, .T. ) ;
#6 = ORIENTED_EDGE ( 'NONE', *, *, #164, .T. ) ;
#7 = LOCAL_TIME ( 10, 19, 35.00000000000000000, #148 ) ;
#8 = PLANE ( 'NONE',  #215 ) ;
#9 = DIRECTION ( 'NONE',  ( 1.406532548089303500E-016, -1.000000000000000000, 0.0000000000000000000 ) ) ;
#10 = APPLICATION_CONTEXT ( 'configuration controlled 3d designs of mechanical parts and assemblies' ) ;
#11 = DIRECTION ( 'NONE',  ( -1.406532548089303500E-016, 1.000000000000000000, -0.0000000000000000000 ) ) ;
#12 = APPROVAL_PERSON_ORGANIZATION ( #162, #198, #118 ) ;
#13 = LINE ( 'NONE', #86, #104 ) ;
#14 = DIRECTION ( 'NONE',  ( 1.000000000000000000, 0.0000000000000000000, 0.0000000000000000000 ) ) ;
#15 = DIRECTION ( 'NONE',  ( 1.406532548089303500E-016, -1.000000000000000000, 0.0000000000000000000 ) ) ;
#16 = CC_DESIGN_PERSON_AND_ORGANIZATION_ASSIGNMENT ( #226, #187, ( #165 ) ) ;
#17 = CARTESIAN_POINT ( 'NONE',  ( 9.999999999999996400, 18.50000000000000000, 1.000000000000000000 ) ) ;
#18 = VERTEX_POINT ( 'NONE', #30 ) ;
#19 = CARTESIAN_POINT ( 'NONE',  ( -10.00000000000000400, 18.50000000000000000, 0.0000000000000000000 ) ) ;
#20 = LOCAL_TIME ( 10, 19, 35.00000000000000000, #182 ) ;
#21 = EDGE_CURVE ( 'NONE', #234, #3, #115, .T. ) ;
#22 = VERTEX_POINT ( 'NONE', #117 ) ;
#23 = ADVANCED_BREP_SHAPE_REPRESENTATION ( 'Web Model 46698', ( #202, #111 ), #183 ) ;
#24 = EDGE_CURVE ( 'NONE', #112, #18, #206, .T. ) ;
#25 = DIRECTION ( 'NONE',  ( -0.0000000000000000000, 0.0000000000000000000, 1.000000000000000000 ) ) ;
#26 = APPROVAL ( #156, 'UNSPECIFIED' ) ;
#27 = LINE ( 'NONE', #70, #221 ) ;
#28 = LINE ( 'NONE', #96, #159 ) ;
#29 = LOCAL_TIME ( 10, 19, 35.00000000000000000, #58 ) ;
#30 = CARTESIAN_POINT ( 'NONE',  ( -10.00000000000000400, 18.50000000000000000, 0.0000000000000000000 ) ) ;
#31 = APPLICATION_PROTOCOL_DEFINITION ( 'international standard', 'config_control_design', 1994, #10 ) ;
#32 = DIRECTION ( 'NONE',  ( 1.000000000000000000, 0.0000000000000000000, 0.0000000000000000000 ) ) ;
#33 = CARTESIAN_POINT ( 'NONE',  ( 10.00000000000000200, -18.49999999999999600, 1.000000000000000000 ) ) ;
#34 = DIRECTION ( 'NONE',  ( 1.000000000000000000, 0.0000000000000000000, 0.0000000000000000000 ) ) ;
#35 = EDGE_LOOP ( 'NONE', ( #193, #90, #40, #185 ) ) ;
#36 = DATE_AND_TIME ( #191, #109 ) ;
#37 = LINE ( 'NONE', #19, #230 ) ;
#38 = EDGE_CURVE ( 'NONE', #95, #3, #52, .T. ) ;
#39 = AXIS2_PLACEMENT_3D ( 'NONE', #57, #25, #14 ) ;
#40 = ORIENTED_EDGE ( 'NONE', *, *, #43, .F. ) ;
#41 = FACE_OUTER_BOUND ( 'NONE', #71, .T. ) ;
#42 = VECTOR ( 'NONE', #48, 1000.000000000000000 ) ;
#43 = EDGE_CURVE ( 'NONE', #22, #95, #2, .T. ) ;
#44 = VERTEX_POINT ( 'NONE', #134 ) ;
#45 = PERSON ( 'UNSPECIFIED', 'UNSPECIFIED', 'UNSPECIFIED', ('UNSPECIFIED'), ('UNSPECIFIED'), ('UNSPECIFIED') ) ;
#46 = EDGE_CURVE ( 'NONE', #22, #234, #195, .T. ) ;
#47 = SECURITY_CLASSIFICATION_LEVEL ( 'unclassified' ) ;
#48 = DIRECTION ( 'NONE',  ( -0.0000000000000000000, -0.0000000000000000000, -1.000000000000000000 ) ) ;
#49 = APPROVAL_PERSON_ORGANIZATION ( #137, #63, #217 ) ;
#50 = DATE_TIME_ROLE ( 'classification_date' ) ;
#51 = CARTESIAN_POINT ( 'NONE',  ( -10.00000000000000400, 18.50000000000000000, 1.000000000000000000 ) ) ;
#52 = LINE ( 'NONE', #33, #184 ) ;
#53 = DIRECTION ( 'NONE',  ( 1.000000000000000000, 1.406532548089303500E-016, -0.0000000000000000000 ) ) ;
#54 = ORIENTED_EDGE ( 'NONE', *, *, #189, .T. ) ;
#55 = PLANE ( 'NONE',  #78 ) ;
#56 = ADVANCED_FACE ( 'NONE', ( #123 ), #8, .F. ) ;
#57 = CARTESIAN_POINT ( 'NONE',  ( 10.00000000000000200, -18.49999999999999600, 0.0000000000000000000 ) ) ;
#58 = COORDINATED_UNIVERSAL_TIME_OFFSET ( 5, 0, .BEHIND. ) ;
#59 = APPROVAL_PERSON_ORGANIZATION ( #168, #26, #157 ) ;
#60 = ORIENTED_EDGE ( 'NONE', *, *, #203, .T. ) ;
#61 = EDGE_CURVE ( 'NONE', #3, #88, #27, .T. ) ;
#62 = APPROVAL_DATE_TIME ( #89, #63 ) ;
#63 = APPROVAL ( #153, 'UNSPECIFIED' ) ;
#64 = FACE_OUTER_BOUND ( 'NONE', #128, .T. ) ;
#65 = PERSON_AND_ORGANIZATION_ROLE ( 'creator' ) ;
#66 = CARTESIAN_POINT ( 'NONE',  ( -9.999999999999998200, -18.49999999999999600, 1.000000000000000000 ) ) ;
#67 = APPLICATION_PROTOCOL_DEFINITION ( 'international standard', 'config_control_design', 1994, #232 ) ;
#68 = DIRECTION ( 'NONE',  ( -0.0000000000000000000, -0.0000000000000000000, -1.000000000000000000 ) ) ;
#69 = CALENDAR_DATE ( 2017, 31, 1 ) ;
#70 = CARTESIAN_POINT ( 'NONE',  ( 9.999999999999996400, 18.50000000000000000, 0.0000000000000000000 ) ) ;
#71 = EDGE_LOOP ( 'NONE', ( #106, #103, #110, #158 ) ) ;
#72 = DIRECTION ( 'NONE',  ( 0.0000000000000000000, -1.000000000000000000, 0.0000000000000000000 ) ) ;
#73 = CC_DESIGN_PERSON_AND_ORGANIZATION_ASSIGNMENT ( #105, #213, ( #228 ) ) ;
#74 = CALENDAR_DATE ( 2017, 31, 1 ) ;
#75 = VECTOR ( 'NONE', #119, 1000.000000000000000 ) ;
#76 = VECTOR ( 'NONE', #11, 1000.000000000000000 ) ;
#77 = ORIENTED_EDGE ( 'NONE', *, *, #5, .F. ) ;
#78 = AXIS2_PLACEMENT_3D ( 'NONE', #87, #219, #201 ) ;
#79 = UNCERTAINTY_MEASURE_WITH_UNIT (LENGTH_MEASURE( 1.000000000000000100E-005 ), #135, 'distance_accuracy_value', 'NONE');
#80 = CARTESIAN_POINT ( 'NONE',  ( -9.999999999999998200, -18.49999999999999600, 1.000000000000000000 ) ) ;
#81 = DATE_TIME_ROLE ( 'creation_date' ) ;
#82 = DIRECTION ( 'NONE',  ( 1.000000000000000000, 0.0000000000000000000, 0.0000000000000000000 ) ) ;
#83 = EDGE_CURVE ( 'NONE', #44, #112, #92, .T. ) ;
#84 = CARTESIAN_POINT ( 'NONE',  ( -9.999999999999998200, -18.49999999999999600, 0.0000000000000000000 ) ) ;
#85 =( NAMED_UNIT ( * ) PLANE_ANGLE_UNIT ( ) SI_UNIT ( $, .RADIAN. ) );
#86 = CARTESIAN_POINT ( 'NONE',  ( -10.00000000000000400, 18.50000000000000000, 1.000000000000000000 ) ) ;
#87 = CARTESIAN_POINT ( 'NONE',  ( -9.999999999999998200, -18.49999999999999600, 1.000000000000000000 ) ) ;
#88 = VERTEX_POINT ( 'NONE', #98 ) ;
#89 = DATE_AND_TIME ( #4, #29 ) ;
#90 = ORIENTED_EDGE ( 'NONE', *, *, #38, .F. ) ;
#91 = ORIENTED_EDGE ( 'NONE', *, *, #24, .F. ) ;
#92 = LINE ( 'NONE', #214, #181 ) ;
#93 = PERSON_AND_ORGANIZATION ( #45, #129 ) ;
#94 = ORIENTED_EDGE ( 'NONE', *, *, #61, .F. ) ;
#95 = VERTEX_POINT ( 'NONE', #174 ) ;
#96 = CARTESIAN_POINT ( 'NONE',  ( -10.00000000000000400, 18.50000000000000000, 0.0000000000000000000 ) ) ;
#97 = CARTESIAN_POINT ( 'NONE',  ( 9.999999999999996400, 18.50000000000000000, 1.000000000000000000 ) ) ;
#98 = CARTESIAN_POINT ( 'NONE',  ( 9.999999999999996400, 18.50000000000000000, 0.0000000000000000000 ) ) ;
#99 = CALENDAR_DATE ( 2017, 31, 1 ) ;
#100 = PERSON_AND_ORGANIZATION_ROLE ( 'classification_officer' ) ;
#101 = CC_DESIGN_APPROVAL ( #198, ( #166 ) ) ;
#102 = DIRECTION ( 'NONE',  ( -0.0000000000000000000, -0.0000000000000000000, -1.000000000000000000 ) ) ;
#103 = ORIENTED_EDGE ( 'NONE', *, *, #46, .F. ) ;
#104 = VECTOR ( 'NONE', #9, 1000.000000000000000 ) ;
#105 = PERSON_AND_ORGANIZATION ( #45, #129 ) ;
#106 = ORIENTED_EDGE ( 'NONE', *, *, #178, .T. ) ;
#107 = PRODUCT_RELATED_PRODUCT_CATEGORY ( 'detail', '', ( #165 ) ) ;
#108 = AXIS2_PLACEMENT_3D ( 'NONE', #199, #121, #34 ) ;
#109 = LOCAL_TIME ( 10, 19, 35.00000000000000000, #170 ) ;
#110 = ORIENTED_EDGE ( 'NONE', *, *, #189, .F. ) ;
#111 = AXIS2_PLACEMENT_3D ( 'NONE', #194, #116, #82 ) ;
#112 = VERTEX_POINT ( 'NONE', #186 ) ;
#113 = DIRECTION ( 'NONE',  ( -0.0000000000000000000, -0.0000000000000000000, -1.000000000000000000 ) ) ;
#114 = PLANE ( 'NONE',  #210 ) ;
#115 = LINE ( 'NONE', #84, #75 ) ;
#116 = DIRECTION ( 'NONE',  ( 0.0000000000000000000, 0.0000000000000000000, 1.000000000000000000 ) ) ;
#117 = CARTESIAN_POINT ( 'NONE',  ( -9.999999999999998200, -18.49999999999999600, 1.000000000000000000 ) ) ;
#118 = APPROVAL_ROLE ( '' ) ;
#119 = DIRECTION ( 'NONE',  ( 1.000000000000000000, 0.0000000000000000000, 0.0000000000000000000 ) ) ;
#120 = DIRECTION ( 'NONE',  ( 1.406532548089303500E-016, -1.000000000000000000, 0.0000000000000000000 ) ) ;
#121 = DIRECTION ( 'NONE',  ( -0.0000000000000000000, 0.0000000000000000000, 1.000000000000000000 ) ) ;
#122 = PLANE ( 'NONE',  #108 ) ;
#123 = FACE_OUTER_BOUND ( 'NONE', #145, .T. ) ;
#124 = DATE_AND_TIME ( #69, #7 ) ;
#125 = ADVANCED_FACE ( 'NONE', ( #41 ), #114, .F. ) ;
#126 = CC_DESIGN_SECURITY_CLASSIFICATION ( #166, ( #228 ) ) ;
#127 = VECTOR ( 'NONE', #32, 1000.000000000000000 ) ;
#128 = EDGE_LOOP ( 'NONE', ( #6, #209, #54, #176 ) ) ;
#129 = ORGANIZATION ( 'UNSPECIFIED', 'UNSPECIFIED', '' ) ;
#130 = PRODUCT_DEFINITION_SHAPE ( 'NONE', 'NONE',  #147 ) ;
#131 = PERSON_AND_ORGANIZATION_ROLE ( 'creator' ) ;
#132 = CARTESIAN_POINT ( 'NONE',  ( 10.00000000000000200, -18.49999999999999600, 0.0000000000000000000 ) ) ;
#133 = CARTESIAN_POINT ( 'NONE',  ( -9.999999999999998200, -18.49999999999999600, 0.0000000000000000000 ) ) ;
#134 = CARTESIAN_POINT ( 'NONE',  ( 9.999999999999996400, 18.50000000000000000, 1.000000000000000000 ) ) ;
#135 =( LENGTH_UNIT ( ) NAMED_UNIT ( * ) SI_UNIT ( .MILLI., .METRE. ) );
#136 = CC_DESIGN_APPROVAL ( #26, ( #147 ) ) ;
#137 = PERSON_AND_ORGANIZATION ( #45, #129 ) ;
#138 = PLANE ( 'NONE',  #39 ) ;
#139 = ORIENTED_EDGE ( 'NONE', *, *, #61, .T. ) ;
#140 = DIRECTION ( 'NONE',  ( -1.000000000000000000, -0.0000000000000000000, -0.0000000000000000000 ) ) ;
#141 = CARTESIAN_POINT ( 'NONE',  ( -10.00000000000000400, 18.50000000000000000, 1.000000000000000000 ) ) ;
#142 = ORIENTED_EDGE ( 'NONE', *, *, #203, .F. ) ;
#143 = AXIS2_PLACEMENT_3D ( 'NONE', #141, #72, #237 ) ;
#144 = APPROVAL_DATE_TIME ( #124, #26 ) ;
#145 = EDGE_LOOP ( 'NONE', ( #139, #77, #152, #180 ) ) ;
#146 = FACE_OUTER_BOUND ( 'NONE', #150, .T. ) ;
#147 = PRODUCT_DEFINITION ( 'UNKNOWN', '', #228, #231 ) ;
#148 = COORDINATED_UNIVERSAL_TIME_OFFSET ( 5, 0, .BEHIND. ) ;
#149 = SHAPE_DEFINITION_REPRESENTATION ( #130, #23 ) ;
#150 = EDGE_LOOP ( 'NONE', ( #60, #91, #207, #197 ) ) ;
#151 = CC_DESIGN_PERSON_AND_ORGANIZATION_ASSIGNMENT ( #211, #131, ( #228 ) ) ;
#152 = ORIENTED_EDGE ( 'NONE', *, *, #164, .F. ) ;
#153 = APPROVAL_STATUS ( 'not_yet_approved' ) ;
#154 = CARTESIAN_POINT ( 'NONE',  ( 9.999999999999996400, 18.50000000000000000, 1.000000000000000000 ) ) ;
#155 = COORDINATED_UNIVERSAL_TIME_OFFSET ( 5, 0, .BEHIND. ) ;
#156 = APPROVAL_STATUS ( 'not_yet_approved' ) ;
#157 = APPROVAL_ROLE ( '' ) ;
#158 = ORIENTED_EDGE ( 'NONE', *, *, #24, .T. ) ;
#159 = VECTOR ( 'NONE', #15, 1000.000000000000000 ) ;
#160 = DATE_AND_TIME ( #74, #20 ) ;
#161 = ORIENTED_EDGE ( 'NONE', *, *, #178, .F. ) ;
#162 = PERSON_AND_ORGANIZATION ( #45, #129 ) ;
#163 = VECTOR ( 'NONE', #102, 1000.000000000000000 ) ;
#164 = EDGE_CURVE ( 'NONE', #95, #44, #171, .T. ) ;
#165 = PRODUCT ( 'Web Model 46698', 'Web Model 46698', '', ( #188 ) ) ;
#166 = SECURITY_CLASSIFICATION ( '', '', #47 ) ;
#167 = FACE_OUTER_BOUND ( 'NONE', #35, .T. ) ;
#168 = PERSON_AND_ORGANIZATION ( #45, #129 ) ;
#169 = DIRECTION ( 'NONE',  ( -1.000000000000000000, -1.406532548089303500E-016, 0.0000000000000000000 ) ) ;
#170 = COORDINATED_UNIVERSAL_TIME_OFFSET ( 5, 0, .BEHIND. ) ;
#171 = LINE ( 'NONE', #97, #76 ) ;
#172 =( NAMED_UNIT ( * ) SI_UNIT ( $, .STERADIAN. ) SOLID_ANGLE_UNIT ( ) );
#173 = CARTESIAN_POINT ( 'NONE',  ( -10.00000000000000400, 18.50000000000000000, 1.000000000000000000 ) ) ;
#174 = CARTESIAN_POINT ( 'NONE',  ( 10.00000000000000200, -18.49999999999999600, 1.000000000000000000 ) ) ;
#175 = PLANE ( 'NONE',  #143 ) ;
#176 = ORIENTED_EDGE ( 'NONE', *, *, #43, .T. ) ;
#177 = FACE_OUTER_BOUND ( 'NONE', #235, .T. ) ;
#178 = EDGE_CURVE ( 'NONE', #18, #234, #28, .T. ) ;
#179 = CC_DESIGN_DATE_AND_TIME_ASSIGNMENT ( #36, #50, ( #166 ) ) ;
#180 = ORIENTED_EDGE ( 'NONE', *, *, #38, .T. ) ;
#181 = VECTOR ( 'NONE', #140, 1000.000000000000000 ) ;
#182 = COORDINATED_UNIVERSAL_TIME_OFFSET ( 5, 0, .BEHIND. ) ;
#183 =( GEOMETRIC_REPRESENTATION_CONTEXT ( 3 ) GLOBAL_UNCERTAINTY_ASSIGNED_CONTEXT ( ( #79 ) ) GLOBAL_UNIT_ASSIGNED_CONTEXT ( ( #135, #85, #172 ) ) REPRESENTATION_CONTEXT ( 'NONE', 'WORKASPACE' ) );
#184 = VECTOR ( 'NONE', #113, 1000.000000000000000 ) ;
#185 = ORIENTED_EDGE ( 'NONE', *, *, #46, .T. ) ;
#186 = CARTESIAN_POINT ( 'NONE',  ( -10.00000000000000400, 18.50000000000000000, 1.000000000000000000 ) ) ;
#187 = PERSON_AND_ORGANIZATION_ROLE ( 'design_owner' ) ;
#188 = MECHANICAL_CONTEXT ( 'NONE', #232, 'mechanical' ) ;
#189 = EDGE_CURVE ( 'NONE', #112, #22, #13, .T. ) ;
#190 = DIRECTION ( 'NONE',  ( -1.406532548089303500E-016, 1.000000000000000000, 0.0000000000000000000 ) ) ;
#191 = CALENDAR_DATE ( 2017, 31, 1 ) ;
#192 = LINE ( 'NONE', #17, #223 ) ;
#193 = ORIENTED_EDGE ( 'NONE', *, *, #21, .T. ) ;
#194 = CARTESIAN_POINT ( 'NONE',  ( 0.0000000000000000000, 0.0000000000000000000, 0.0000000000000000000 ) ) ;
#195 = LINE ( 'NONE', #80, #42 ) ;
#196 = DIRECTION ( 'NONE',  ( -1.000000000000000000, -0.0000000000000000000, -0.0000000000000000000 ) ) ;
#197 = ORIENTED_EDGE ( 'NONE', *, *, #5, .T. ) ;
#198 = APPROVAL ( #233, 'UNSPECIFIED' ) ;
#199 = CARTESIAN_POINT ( 'NONE',  ( 10.00000000000000200, -18.49999999999999600, 1.000000000000000000 ) ) ;
#200 = ADVANCED_FACE ( 'NONE', ( #64 ), #122, .T. ) ;
#201 = DIRECTION ( 'NONE',  ( 0.0000000000000000000, -0.0000000000000000000, 1.000000000000000000 ) ) ;
#202 = MANIFOLD_SOLID_BREP ( 'Extrude1', #212 ) ;
#203 = EDGE_CURVE ( 'NONE', #88, #18, #37, .T. ) ;
#204 = ADVANCED_FACE ( 'NONE', ( #146 ), #175, .F. ) ;
#205 = DATE_AND_TIME ( #99, #227 ) ;
#206 = LINE ( 'NONE', #51, #163 ) ;
#207 = ORIENTED_EDGE ( 'NONE', *, *, #83, .F. ) ;
#208 = CC_DESIGN_PERSON_AND_ORGANIZATION_ASSIGNMENT ( #93, #65, ( #147 ) ) ;
#209 = ORIENTED_EDGE ( 'NONE', *, *, #83, .T. ) ;
#210 = AXIS2_PLACEMENT_3D ( 'NONE', #173, #53, #190 ) ;
#211 = PERSON_AND_ORGANIZATION ( #45, #129 ) ;
#212 = CLOSED_SHELL ( 'NONE', ( #56, #204, #125, #220, #200, #224 ) ) ;
#213 = PERSON_AND_ORGANIZATION_ROLE ( 'design_supplier' ) ;
#214 = CARTESIAN_POINT ( 'NONE',  ( -10.00000000000000400, 18.50000000000000000, 1.000000000000000000 ) ) ;
#215 = AXIS2_PLACEMENT_3D ( 'NONE', #154, #169, #120 ) ;
#216 = DIRECTION ( 'NONE',  ( -1.406532548089303500E-016, 1.000000000000000000, -0.0000000000000000000 ) ) ;
#217 = APPROVAL_ROLE ( '' ) ;
#218 = CC_DESIGN_DATE_AND_TIME_ASSIGNMENT ( #160, #81, ( #147 ) ) ;
#219 = DIRECTION ( 'NONE',  ( 0.0000000000000000000, 1.000000000000000000, 0.0000000000000000000 ) ) ;
#220 = ADVANCED_FACE ( 'NONE', ( #167 ), #55, .F. ) ;
#221 = VECTOR ( 'NONE', #216, 1000.000000000000000 ) ;
#222 = PERSON_AND_ORGANIZATION ( #45, #129 ) ;
#223 = VECTOR ( 'NONE', #68, 1000.000000000000000 ) ;
#224 = ADVANCED_FACE ( 'NONE', ( #177 ), #138, .F. ) ;
#225 = CC_DESIGN_APPROVAL ( #63, ( #228 ) ) ;
#226 = PERSON_AND_ORGANIZATION ( #45, #129 ) ;
#227 = LOCAL_TIME ( 10, 19, 35.00000000000000000, #155 ) ;
#228 = PRODUCT_DEFINITION_FORMATION_WITH_SPECIFIED_SOURCE ( 'ANY', '', #165, .NOT_KNOWN. ) ;
#229 = ORIENTED_EDGE ( 'NONE', *, *, #21, .F. ) ;
#230 = VECTOR ( 'NONE', #196, 1000.000000000000000 ) ;
#231 = DESIGN_CONTEXT ( 'detailed design', #10, 'design' ) ;
#232 = APPLICATION_CONTEXT ( 'configuration controlled 3d designs of mechanical parts and assemblies' ) ;
#233 = APPROVAL_STATUS ( 'not_yet_approved' ) ;
#234 = VERTEX_POINT ( 'NONE', #133 ) ;
#235 = EDGE_LOOP ( 'NONE', ( #94, #229, #161, #142 ) ) ;
#236 = CC_DESIGN_PERSON_AND_ORGANIZATION_ASSIGNMENT ( #222, #100, ( #166 ) ) ;
#237 = DIRECTION ( 'NONE',  ( 0.0000000000000000000, -0.0000000000000000000, -1.000000000000000000 ) ) ;
ENDSEC;
END-ISO-10303-21;
