ISO-10303-21;
HEADER;
FILE_DESCRIPTION (( 'STEP AP203' ),
    '1' );
FILE_NAME ('Web Model 46460_18712.step',
    '2021-07-13T18:48:23',
    ( '' ),
    ( '' ),
    'SwSTEP 2.0',
    'SolidWorks 2018',
    '' );
FILE_SCHEMA (( 'CONFIG_CONTROL_DESIGN' ));
ENDSEC;

DATA;
#1 = EDGE_CURVE ( 'NONE', #150, #73, #96, .T. ) ;
#2 = CIRCLE ( 'NONE', #84, 18.99999999999999645 ) ;
#3 = COORDINATED_UNIVERSAL_TIME_OFFSET ( 5, 0, .BEHIND. ) ;
#4 = DATE_TIME_ROLE ( 'classification_date' ) ;
#5 = CC_DESIGN_APPROVAL ( #114, ( #135 ) ) ;
#6 = ORIENTED_EDGE ( 'NONE', *, *, #75, .T. ) ;
#7 = COORDINATED_UNIVERSAL_TIME_OFFSET ( 5, 0, .BEHIND. ) ;
#8 = CC_DESIGN_PERSON_AND_ORGANIZATION_ASSIGNMENT ( #148, #103, ( #115 ) ) ;
#9 = LOCAL_TIME ( 14, 48, 23.00000000000000000, #145 ) ;
#10 = VERTEX_POINT ( 'NONE', #120 ) ;
#11 = LOCAL_TIME ( 14, 48, 23.00000000000000000, #35 ) ;
#12 =( NAMED_UNIT ( * ) PLANE_ANGLE_UNIT ( ) SI_UNIT ( $, .RADIAN. ) );
#13 = DIRECTION ( 'NONE',  ( -1.000000000000000000, -0.000000000000000000, -0.000000000000000000 ) ) ;
#14 = AXIS2_PLACEMENT_3D ( 'NONE', #174, #141, #66 ) ;
#15 = MECHANICAL_CONTEXT ( 'NONE', #69, 'mechanical' ) ;
#16 = ORIENTED_EDGE ( 'NONE', *, *, #1, .F. ) ;
#17 = APPLICATION_PROTOCOL_DEFINITION ( 'international standard', 'config_control_design', 1994, #69 ) ;
#18 = ORIENTED_EDGE ( 'NONE', *, *, #133, .T. ) ;
#19 = AXIS2_PLACEMENT_3D ( 'NONE', #128, #52, #94 ) ;
#20 = LOCAL_TIME ( 14, 48, 23.00000000000000000, #3 ) ;
#21 = EDGE_CURVE ( 'NONE', #10, #162, #119, .T. ) ;
#22 = VECTOR ( 'NONE', #91, 1000.000000000000000 ) ;
#23 = PERSON_AND_ORGANIZATION_ROLE ( 'classification_officer' ) ;
#24 = ORIENTED_EDGE ( 'NONE', *, *, #133, .F. ) ;
#25 = ADVANCED_FACE ( 'NONE', ( #41 ), #139, .T. ) ;
#26 = CC_DESIGN_PERSON_AND_ORGANIZATION_ASSIGNMENT ( #97, #32, ( #135 ) ) ;
#27 = LINE ( 'NONE', #33, #136 ) ;
#28 = ORIENTED_EDGE ( 'NONE', *, *, #21, .T. ) ;
#29 = COORDINATED_UNIVERSAL_TIME_OFFSET ( 5, 0, .BEHIND. ) ;
#30 = ORIENTED_EDGE ( 'NONE', *, *, #75, .F. ) ;
#31 = PERSON_AND_ORGANIZATION ( #127, #105 ) ;
#32 = PERSON_AND_ORGANIZATION_ROLE ( 'creator' ) ;
#33 = CARTESIAN_POINT ( 'NONE',  ( 0.7500000000000000000, 2.326828918379970576E-15, -18.99999999999999645 ) ) ;
#34 = PRODUCT_DEFINITION_SHAPE ( 'NONE', 'NONE',  #48 ) ;
#35 = COORDINATED_UNIVERSAL_TIME_OFFSET ( 5, 0, .BEHIND. ) ;
#36 = APPROVAL_STATUS ( 'not_yet_approved' ) ;
#37 = AXIS2_PLACEMENT_3D ( 'NONE', #51, #125, #167 ) ;
#38 = AXIS2_PLACEMENT_3D ( 'NONE', #143, #172, #158 ) ;
#39 = CALENDAR_DATE ( 2021, 13, 7 ) ;
#40 = UNCERTAINTY_MEASURE_WITH_UNIT (LENGTH_MEASURE( 1.000000000000000082E-05 ), #140, 'distance_accuracy_value', 'NONE');
#41 = FACE_OUTER_BOUND ( 'NONE', #124, .T. ) ;
#42 = DIRECTION ( 'NONE',  ( -1.000000000000000000, -0.000000000000000000, -0.000000000000000000 ) ) ;
#43 = PLANE ( 'NONE',  #37 ) ;
#44 = SECURITY_CLASSIFICATION ( '', '', #72 ) ;
#45 = DIRECTION ( 'NONE',  ( 1.000000000000000000, 0.000000000000000000, 0.000000000000000000 ) ) ;
#46 = ORIENTED_EDGE ( 'NONE', *, *, #170, .F. ) ;
#47 = APPROVAL_STATUS ( 'not_yet_approved' ) ;
#48 = PRODUCT_DEFINITION ( 'UNKNOWN', '', #135, #101 ) ;
#49 = ORIENTED_EDGE ( 'NONE', *, *, #85, .T. ) ;
#50 = EDGE_LOOP ( 'NONE', ( #155, #60, #87, #18 ) ) ;
#51 = CARTESIAN_POINT ( 'NONE',  ( 0.7500000000000000000, 0.000000000000000000, 0.000000000000000000 ) ) ;
#52 = DIRECTION ( 'NONE',  ( -1.000000000000000000, -0.000000000000000000, -0.000000000000000000 ) ) ;
#53 = CARTESIAN_POINT ( 'NONE',  ( -0.7500000000000000000, 2.326828918379970576E-15, -18.99999999999999645 ) ) ;
#54 = CIRCLE ( 'NONE', #14, 18.99999999999999645 ) ;
#55 = EDGE_LOOP ( 'NONE', ( #24, #16 ) ) ;
#56 = DATE_AND_TIME ( #113, #9 ) ;
#57 = APPROVAL_ROLE ( '' ) ;
#58 = CC_DESIGN_APPROVAL ( #61, ( #44 ) ) ;
#59 = AXIS2_PLACEMENT_3D ( 'NONE', #154, #122, #160 ) ;
#60 = ORIENTED_EDGE ( 'NONE', *, *, #21, .F. ) ;
#61 = APPROVAL ( #47, 'UNSPECIFIED' ) ;
#62 = APPROVAL_DATE_TIME ( #56, #152 ) ;
#63 = ADVANCED_BREP_SHAPE_REPRESENTATION ( 'Web Model 46460_18712', ( #111, #130 ), #149 ) ;
#64 = ADVANCED_FACE ( 'NONE', ( #166 ), #43, .T. ) ;
#65 = PERSON_AND_ORGANIZATION ( #127, #105 ) ;
#66 = DIRECTION ( 'NONE',  ( 0.000000000000000000, 0.000000000000000000, -1.000000000000000000 ) ) ;
#67 = CARTESIAN_POINT ( 'NONE',  ( -0.7500000000000000000, 0.000000000000000000, 0.000000000000000000 ) ) ;
#68 = PERSON_AND_ORGANIZATION ( #127, #105 ) ;
#69 = APPLICATION_CONTEXT ( 'configuration controlled 3d designs of mechanical parts and assemblies' ) ;
#70 = DIRECTION ( 'NONE',  ( 0.000000000000000000, 0.000000000000000000, -1.000000000000000000 ) ) ;
#71 = PERSON_AND_ORGANIZATION_ROLE ( 'creator' ) ;
#72 = SECURITY_CLASSIFICATION_LEVEL ( 'unclassified' ) ;
#73 = VERTEX_POINT ( 'NONE', #104 ) ;
#74 = PERSON_AND_ORGANIZATION ( #127, #105 ) ;
#75 = EDGE_CURVE ( 'NONE', #162, #10, #2, .T. ) ;
#76 = CLOSED_SHELL ( 'NONE', ( #25, #138, #64, #117 ) ) ;
#77 = CARTESIAN_POINT ( 'NONE',  ( 0.7500000000000000000, 0.000000000000000000, 18.99999999999999645 ) ) ;
#78 = CALENDAR_DATE ( 2021, 13, 7 ) ;
#79 =( NAMED_UNIT ( * ) SI_UNIT ( $, .STERADIAN. ) SOLID_ANGLE_UNIT ( ) );
#80 = FACE_OUTER_BOUND ( 'NONE', #50, .T. ) ;
#81 = APPROVAL_STATUS ( 'not_yet_approved' ) ;
#82 = AXIS2_PLACEMENT_3D ( 'NONE', #67, #165, #108 ) ;
#83 = EDGE_LOOP ( 'NONE', ( #28, #6 ) ) ;
#84 = AXIS2_PLACEMENT_3D ( 'NONE', #90, #159, #70 ) ;
#85 = EDGE_CURVE ( 'NONE', #162, #150, #27, .T. ) ;
#86 = AXIS2_PLACEMENT_3D ( 'NONE', #88, #42, #175 ) ;
#87 = ORIENTED_EDGE ( 'NONE', *, *, #170, .T. ) ;
#88 = CARTESIAN_POINT ( 'NONE',  ( 0.7500000000000000000, 0.000000000000000000, 0.000000000000000000 ) ) ;
#89 = CC_DESIGN_APPROVAL ( #152, ( #48 ) ) ;
#90 = CARTESIAN_POINT ( 'NONE',  ( 0.7500000000000000000, 0.000000000000000000, 0.000000000000000000 ) ) ;
#91 = DIRECTION ( 'NONE',  ( -1.000000000000000000, -0.000000000000000000, -0.000000000000000000 ) ) ;
#92 = CC_DESIGN_DATE_AND_TIME_ASSIGNMENT ( #163, #4, ( #44 ) ) ;
#93 = LOCAL_TIME ( 14, 48, 23.00000000000000000, #7 ) ;
#94 = DIRECTION ( 'NONE',  ( 0.000000000000000000, 0.000000000000000000, 1.000000000000000000 ) ) ;
#95 = APPROVAL_ROLE ( '' ) ;
#96 = CIRCLE ( 'NONE', #59, 18.99999999999999645 ) ;
#97 = PERSON_AND_ORGANIZATION ( #127, #105 ) ;
#98 = DATE_AND_TIME ( #164, #93 ) ;
#99 = CC_DESIGN_PERSON_AND_ORGANIZATION_ASSIGNMENT ( #116, #71, ( #48 ) ) ;
#100 = CYLINDRICAL_SURFACE ( 'NONE', #19, 18.99999999999999645 ) ;
#101 = DESIGN_CONTEXT ( 'detailed design', #129, 'design' ) ;
#102 = CC_DESIGN_PERSON_AND_ORGANIZATION_ASSIGNMENT ( #31, #23, ( #44 ) ) ;
#103 = PERSON_AND_ORGANIZATION_ROLE ( 'design_owner' ) ;
#104 = CARTESIAN_POINT ( 'NONE',  ( -0.7500000000000000000, 0.000000000000000000, 18.99999999999999645 ) ) ;
#105 = ORGANIZATION ( 'UNSPECIFIED', 'UNSPECIFIED', '' ) ;
#106 = APPROVAL_DATE_TIME ( #169, #61 ) ;
#107 = LOCAL_TIME ( 14, 48, 23.00000000000000000, #29 ) ;
#108 = DIRECTION ( 'NONE',  ( 0.000000000000000000, 0.000000000000000000, -1.000000000000000000 ) ) ;
#109 = CARTESIAN_POINT ( 'NONE',  ( 0.000000000000000000, 0.000000000000000000, 0.000000000000000000 ) ) ;
#110 = APPLICATION_PROTOCOL_DEFINITION ( 'international standard', 'config_control_design', 1994, #129 ) ;
#111 = MANIFOLD_SOLID_BREP ( 'Boss-Extrude1', #76 ) ;
#112 = CC_DESIGN_DATE_AND_TIME_ASSIGNMENT ( #98, #168, ( #48 ) ) ;
#113 = CALENDAR_DATE ( 2021, 13, 7 ) ;
#114 = APPROVAL ( #81, 'UNSPECIFIED' ) ;
#115 = PRODUCT ( 'Web Model 46460_18712', 'Web Model 46460_18712', '', ( #15 ) ) ;
#116 = PERSON_AND_ORGANIZATION ( #127, #105 ) ;
#117 = ADVANCED_FACE ( 'NONE', ( #173 ), #157, .F. ) ;
#118 = ORIENTED_EDGE ( 'NONE', *, *, #1, .T. ) ;
#119 = CIRCLE ( 'NONE', #38, 18.99999999999999645 ) ;
#120 = CARTESIAN_POINT ( 'NONE',  ( 0.7500000000000000000, 0.000000000000000000, 18.99999999999999645 ) ) ;
#121 = CALENDAR_DATE ( 2021, 13, 7 ) ;
#122 = DIRECTION ( 'NONE',  ( 1.000000000000000000, 0.000000000000000000, 0.000000000000000000 ) ) ;
#123 = CC_DESIGN_SECURITY_CLASSIFICATION ( #44, ( #135 ) ) ;
#124 = EDGE_LOOP ( 'NONE', ( #30, #49, #118, #46 ) ) ;
#125 = DIRECTION ( 'NONE',  ( 1.000000000000000000, 0.000000000000000000, 0.000000000000000000 ) ) ;
#126 = APPROVAL_PERSON_ORGANIZATION ( #74, #61, #134 ) ;
#127 = PERSON ( 'UNSPECIFIED', 'UNSPECIFIED', 'UNSPECIFIED', ('UNSPECIFIED'), ('UNSPECIFIED'), ('UNSPECIFIED') ) ;
#128 = CARTESIAN_POINT ( 'NONE',  ( 0.7500000000000000000, 0.000000000000000000, 0.000000000000000000 ) ) ;
#129 = APPLICATION_CONTEXT ( 'configuration controlled 3d designs of mechanical parts and assemblies' ) ;
#130 = AXIS2_PLACEMENT_3D ( 'NONE', #109, #144, #45 ) ;
#131 = SHAPE_DEFINITION_REPRESENTATION ( #34, #63 ) ;
#132 = CARTESIAN_POINT ( 'NONE',  ( 0.7500000000000000000, 2.326828918379970576E-15, -18.99999999999999645 ) ) ;
#133 = EDGE_CURVE ( 'NONE', #73, #150, #54, .T. ) ;
#134 = APPROVAL_ROLE ( '' ) ;
#135 = PRODUCT_DEFINITION_FORMATION_WITH_SPECIFIED_SOURCE ( 'ANY', '', #115, .NOT_KNOWN. ) ;
#136 = VECTOR ( 'NONE', #13, 1000.000000000000000 ) ;
#137 = CC_DESIGN_PERSON_AND_ORGANIZATION_ASSIGNMENT ( #65, #161, ( #135 ) ) ;
#138 = ADVANCED_FACE ( 'NONE', ( #80 ), #100, .T. ) ;
#139 = CYLINDRICAL_SURFACE ( 'NONE', #86, 18.99999999999999645 ) ;
#140 =( LENGTH_UNIT ( ) NAMED_UNIT ( * ) SI_UNIT ( .MILLI., .METRE. ) );
#141 = DIRECTION ( 'NONE',  ( 1.000000000000000000, 0.000000000000000000, 0.000000000000000000 ) ) ;
#142 = APPROVAL_DATE_TIME ( #171, #114 ) ;
#143 = CARTESIAN_POINT ( 'NONE',  ( 0.7500000000000000000, 0.000000000000000000, 0.000000000000000000 ) ) ;
#144 = DIRECTION ( 'NONE',  ( 0.000000000000000000, 0.000000000000000000, 1.000000000000000000 ) ) ;
#145 = COORDINATED_UNIVERSAL_TIME_OFFSET ( 5, 0, .BEHIND. ) ;
#146 = PRODUCT_RELATED_PRODUCT_CATEGORY ( 'detail', '', ( #115 ) ) ;
#147 = LINE ( 'NONE', #77, #22 ) ;
#148 = PERSON_AND_ORGANIZATION ( #127, #105 ) ;
#149 =( GEOMETRIC_REPRESENTATION_CONTEXT ( 3 ) GLOBAL_UNCERTAINTY_ASSIGNED_CONTEXT ( ( #40 ) ) GLOBAL_UNIT_ASSIGNED_CONTEXT ( ( #140, #12, #79 ) ) REPRESENTATION_CONTEXT ( 'NONE', 'WORKASPACE' ) );
#150 = VERTEX_POINT ( 'NONE', #53 ) ;
#151 = APPROVAL_PERSON_ORGANIZATION ( #68, #152, #57 ) ;
#152 = APPROVAL ( #36, 'UNSPECIFIED' ) ;
#153 = APPROVAL_PERSON_ORGANIZATION ( #156, #114, #95 ) ;
#154 = CARTESIAN_POINT ( 'NONE',  ( -0.7500000000000000000, 0.000000000000000000, 0.000000000000000000 ) ) ;
#155 = ORIENTED_EDGE ( 'NONE', *, *, #85, .F. ) ;
#156 = PERSON_AND_ORGANIZATION ( #127, #105 ) ;
#157 = PLANE ( 'NONE',  #82 ) ;
#158 = DIRECTION ( 'NONE',  ( 0.000000000000000000, 0.000000000000000000, -1.000000000000000000 ) ) ;
#159 = DIRECTION ( 'NONE',  ( 1.000000000000000000, 0.000000000000000000, 0.000000000000000000 ) ) ;
#160 = DIRECTION ( 'NONE',  ( 0.000000000000000000, 0.000000000000000000, -1.000000000000000000 ) ) ;
#161 = PERSON_AND_ORGANIZATION_ROLE ( 'design_supplier' ) ;
#162 = VERTEX_POINT ( 'NONE', #132 ) ;
#163 = DATE_AND_TIME ( #78, #20 ) ;
#164 = CALENDAR_DATE ( 2021, 13, 7 ) ;
#165 = DIRECTION ( 'NONE',  ( 1.000000000000000000, 0.000000000000000000, 0.000000000000000000 ) ) ;
#166 = FACE_OUTER_BOUND ( 'NONE', #83, .T. ) ;
#167 = DIRECTION ( 'NONE',  ( 0.000000000000000000, 0.000000000000000000, -1.000000000000000000 ) ) ;
#168 = DATE_TIME_ROLE ( 'creation_date' ) ;
#169 = DATE_AND_TIME ( #121, #11 ) ;
#170 = EDGE_CURVE ( 'NONE', #10, #73, #147, .T. ) ;
#171 = DATE_AND_TIME ( #39, #107 ) ;
#172 = DIRECTION ( 'NONE',  ( 1.000000000000000000, 0.000000000000000000, 0.000000000000000000 ) ) ;
#173 = FACE_OUTER_BOUND ( 'NONE', #55, .T. ) ;
#174 = CARTESIAN_POINT ( 'NONE',  ( -0.7500000000000000000, 0.000000000000000000, 0.000000000000000000 ) ) ;
#175 = DIRECTION ( 'NONE',  ( 0.000000000000000000, 0.000000000000000000, 1.000000000000000000 ) ) ;
ENDSEC;
END-ISO-10303-21;
