ISO-10303-21;
HEADER;
FILE_DESCRIPTION (( 'STEP AP203' ),
    '1' );
FILE_NAME ('Web Model 19924_19924.step',
    '2022-01-24T16:37:55',
    ( '' ),
    ( '' ),
    'SwSTEP 2.0',
    'SolidWorks 2021',
    '' );
FILE_SCHEMA (( 'CONFIG_CONTROL_DESIGN' ));
ENDSEC;

DATA;
#1 = CARTESIAN_POINT ( 'NONE',  ( -37.49999999999999289, 0.000000000000000000, 5.000000000000000000 ) ) ;
#2 = EDGE_LOOP ( 'NONE', ( #75, #39 ) ) ;
#3 = DIRECTION ( 'NONE',  ( -0.000000000000000000, -0.000000000000000000, -1.000000000000000000 ) ) ;
#4 = APPROVAL_PERSON_ORGANIZATION ( #171, #123, #8 ) ;
#5 = PERSON_AND_ORGANIZATION_ROLE ( 'design_supplier' ) ;
#6 = DIRECTION ( 'NONE',  ( 1.000000000000000000, 0.000000000000000000, 0.000000000000000000 ) ) ;
#7 = PRODUCT ( 'Web Model 19924_19924', 'Web Model 19924_19924', '', ( #167 ) ) ;
#8 = APPROVAL_ROLE ( '' ) ;
#9 = APPLICATION_PROTOCOL_DEFINITION ( 'international standard', 'config_control_design', 1994, #29 ) ;
#10 = APPLICATION_PROTOCOL_DEFINITION ( 'international standard', 'config_control_design', 1994, #115 ) ;
#11 = LINE ( 'NONE', #161, #17 ) ;
#12 = DIRECTION ( 'NONE',  ( 0.000000000000000000, 0.000000000000000000, 1.000000000000000000 ) ) ;
#13 = DIRECTION ( 'NONE',  ( 0.000000000000000000, 0.000000000000000000, 1.000000000000000000 ) ) ;
#14 = SHAPE_DEFINITION_REPRESENTATION ( #134, #141 ) ;
#15 = ADVANCED_FACE ( 'NONE', ( #55 ), #53, .T. ) ;
#16 = DATE_AND_TIME ( #109, #140 ) ;
#17 = VECTOR ( 'NONE', #63, 1000.000000000000000 ) ;
#18 = PERSON_AND_ORGANIZATION_ROLE ( 'design_owner' ) ;
#19 = PERSON_AND_ORGANIZATION_ROLE ( 'creator' ) ;
#20 = LOCAL_TIME ( 11, 37, 55.00000000000000000, #120 ) ;
#21 = VERTEX_POINT ( 'NONE', #1 ) ;
#22 = APPROVAL ( #33, 'UNSPECIFIED' ) ;
#23 =( LENGTH_UNIT ( ) NAMED_UNIT ( * ) SI_UNIT ( .MILLI., .METRE. ) );
#24 = CARTESIAN_POINT ( 'NONE',  ( 0.000000000000000000, 0.000000000000000000, 5.000000000000000000 ) ) ;
#25 = AXIS2_PLACEMENT_3D ( 'NONE', #118, #66, #28 ) ;
#26 = ORIENTED_EDGE ( 'NONE', *, *, #145, .T. ) ;
#27 = CARTESIAN_POINT ( 'NONE',  ( 0.000000000000000000, 0.000000000000000000, 0.000000000000000000 ) ) ;
#28 = DIRECTION ( 'NONE',  ( 1.000000000000000000, 0.000000000000000000, 0.000000000000000000 ) ) ;
#29 = APPLICATION_CONTEXT ( 'configuration controlled 3d designs of mechanical parts and assemblies' ) ;
#30 = PERSON_AND_ORGANIZATION_ROLE ( 'creator' ) ;
#31 = CIRCLE ( 'NONE', #35, 37.49999999999999289 ) ;
#32 = CARTESIAN_POINT ( 'NONE',  ( 0.000000000000000000, 0.000000000000000000, 0.000000000000000000 ) ) ;
#33 = APPROVAL_STATUS ( 'not_yet_approved' ) ;
#34 = DATE_TIME_ROLE ( 'creation_date' ) ;
#35 = AXIS2_PLACEMENT_3D ( 'NONE', #27, #12, #52 ) ;
#36 = EDGE_CURVE ( 'NONE', #148, #21, #99, .T. ) ;
#37 = EDGE_LOOP ( 'NONE', ( #143, #144 ) ) ;
#38 = CIRCLE ( 'NONE', #69, 37.49999999999999289 ) ;
#39 = ORIENTED_EDGE ( 'NONE', *, *, #36, .T. ) ;
#40 = FACE_OUTER_BOUND ( 'NONE', #2, .T. ) ;
#41 = CARTESIAN_POINT ( 'NONE',  ( 37.49999999999999289, 4.592425496802573578E-15, 5.000000000000000000 ) ) ;
#42 = PLANE ( 'NONE',  #60 ) ;
#43 =( GEOMETRIC_REPRESENTATION_CONTEXT ( 3 ) GLOBAL_UNCERTAINTY_ASSIGNED_CONTEXT ( ( #129 ) ) GLOBAL_UNIT_ASSIGNED_CONTEXT ( ( #23, #125, #107 ) ) REPRESENTATION_CONTEXT ( 'NONE', 'WORKASPACE' ) );
#44 = CC_DESIGN_PERSON_AND_ORGANIZATION_ASSIGNMENT ( #169, #68, ( #137 ) ) ;
#45 = DIRECTION ( 'NONE',  ( -1.000000000000000000, 0.000000000000000000, 0.000000000000000000 ) ) ;
#46 = CARTESIAN_POINT ( 'NONE',  ( 0.000000000000000000, 0.000000000000000000, 0.000000000000000000 ) ) ;
#47 = DATE_AND_TIME ( #57, #73 ) ;
#48 = APPROVAL_DATE_TIME ( #156, #123 ) ;
#49 = APPROVAL_STATUS ( 'not_yet_approved' ) ;
#50 = VERTEX_POINT ( 'NONE', #163 ) ;
#51 = AXIS2_PLACEMENT_3D ( 'NONE', #32, #108, #6 ) ;
#52 = DIRECTION ( 'NONE',  ( 1.000000000000000000, 0.000000000000000000, 0.000000000000000000 ) ) ;
#53 = CYLINDRICAL_SURFACE ( 'NONE', #119, 37.49999999999999289 ) ;
#54 = CC_DESIGN_DATE_AND_TIME_ASSIGNMENT ( #16, #34, ( #105 ) ) ;
#55 = FACE_OUTER_BOUND ( 'NONE', #175, .T. ) ;
#56 = CARTESIAN_POINT ( 'NONE',  ( 0.000000000000000000, 0.000000000000000000, 5.000000000000000000 ) ) ;
#57 = CALENDAR_DATE ( 2022, 24, 1 ) ;
#58 = PERSON_AND_ORGANIZATION ( #112, #172 ) ;
#59 = APPROVAL_DATE_TIME ( #70, #132 ) ;
#60 = AXIS2_PLACEMENT_3D ( 'NONE', #46, #64, #104 ) ;
#61 = CALENDAR_DATE ( 2022, 24, 1 ) ;
#62 = LOCAL_TIME ( 11, 37, 55.00000000000000000, #81 ) ;
#63 = DIRECTION ( 'NONE',  ( -0.000000000000000000, -0.000000000000000000, -1.000000000000000000 ) ) ;
#64 = DIRECTION ( 'NONE',  ( 0.000000000000000000, 0.000000000000000000, 1.000000000000000000 ) ) ;
#65 = EDGE_LOOP ( 'NONE', ( #87, #158, #127, #101 ) ) ;
#66 = DIRECTION ( 'NONE',  ( 0.000000000000000000, 0.000000000000000000, 1.000000000000000000 ) ) ;
#67 = EDGE_CURVE ( 'NONE', #21, #103, #78, .T. ) ;
#68 = PERSON_AND_ORGANIZATION_ROLE ( 'classification_officer' ) ;
#69 = AXIS2_PLACEMENT_3D ( 'NONE', #76, #77, #92 ) ;
#70 = DATE_AND_TIME ( #166, #149 ) ;
#71 = PRODUCT_RELATED_PRODUCT_CATEGORY ( 'detail', '', ( #7 ) ) ;
#72 = VECTOR ( 'NONE', #164, 1000.000000000000000 ) ;
#73 = LOCAL_TIME ( 11, 37, 55.00000000000000000, #122 ) ;
#74 = CC_DESIGN_PERSON_AND_ORGANIZATION_ASSIGNMENT ( #113, #19, ( #97 ) ) ;
#75 = ORIENTED_EDGE ( 'NONE', *, *, #110, .T. ) ;
#76 = CARTESIAN_POINT ( 'NONE',  ( 0.000000000000000000, 0.000000000000000000, 5.000000000000000000 ) ) ;
#77 = DIRECTION ( 'NONE',  ( 0.000000000000000000, 0.000000000000000000, 1.000000000000000000 ) ) ;
#78 = LINE ( 'NONE', #150, #72 ) ;
#79 = CARTESIAN_POINT ( 'NONE',  ( 0.000000000000000000, 0.000000000000000000, 5.000000000000000000 ) ) ;
#80 = APPROVAL_PERSON_ORGANIZATION ( #98, #22, #136 ) ;
#81 = COORDINATED_UNIVERSAL_TIME_OFFSET ( 5, 0, .BEHIND. ) ;
#82 = DATE_TIME_ROLE ( 'classification_date' ) ;
#83 = APPROVAL_DATE_TIME ( #121, #22 ) ;
#84 = CC_DESIGN_PERSON_AND_ORGANIZATION_ASSIGNMENT ( #170, #30, ( #105 ) ) ;
#85 = CIRCLE ( 'NONE', #25, 37.49999999999999289 ) ;
#86 = PERSON_AND_ORGANIZATION ( #112, #172 ) ;
#87 = ORIENTED_EDGE ( 'NONE', *, *, #128, .F. ) ;
#88 = CC_DESIGN_DATE_AND_TIME_ASSIGNMENT ( #47, #82, ( #137 ) ) ;
#89 = MANIFOLD_SOLID_BREP ( 'Boss-Extrude1', #155 ) ;
#90 = APPROVAL_PERSON_ORGANIZATION ( #86, #132, #100 ) ;
#91 = DIRECTION ( 'NONE',  ( 1.000000000000000000, 0.000000000000000000, -0.000000000000000000 ) ) ;
#92 = DIRECTION ( 'NONE',  ( 1.000000000000000000, 0.000000000000000000, 0.000000000000000000 ) ) ;
#93 = AXIS2_PLACEMENT_3D ( 'NONE', #56, #146, #45 ) ;
#94 = PLANE ( 'NONE',  #102 ) ;
#95 = FACE_OUTER_BOUND ( 'NONE', #65, .T. ) ;
#96 = PERSON_AND_ORGANIZATION ( #112, #172 ) ;
#97 = PRODUCT_DEFINITION_FORMATION_WITH_SPECIFIED_SOURCE ( 'ANY', '', #7, .NOT_KNOWN. ) ;
#98 = PERSON_AND_ORGANIZATION ( #112, #172 ) ;
#99 = CIRCLE ( 'NONE', #153, 37.49999999999999289 ) ;
#100 = APPROVAL_ROLE ( '' ) ;
#101 = ORIENTED_EDGE ( 'NONE', *, *, #139, .T. ) ;
#102 = AXIS2_PLACEMENT_3D ( 'NONE', #151, #13, #91 ) ;
#103 = VERTEX_POINT ( 'NONE', #106 ) ;
#104 = DIRECTION ( 'NONE',  ( 1.000000000000000000, 0.000000000000000000, -0.000000000000000000 ) ) ;
#105 = PRODUCT_DEFINITION ( 'UNKNOWN', '', #97, #168 ) ;
#106 = CARTESIAN_POINT ( 'NONE',  ( -37.49999999999999289, 0.000000000000000000, 0.000000000000000000 ) ) ;
#107 =( NAMED_UNIT ( * ) SI_UNIT ( $, .STERADIAN. ) SOLID_ANGLE_UNIT ( ) );
#108 = DIRECTION ( 'NONE',  ( 0.000000000000000000, 0.000000000000000000, 1.000000000000000000 ) ) ;
#109 = CALENDAR_DATE ( 2022, 24, 1 ) ;
#110 = EDGE_CURVE ( 'NONE', #21, #148, #38, .T. ) ;
#111 = APPROVAL_STATUS ( 'not_yet_approved' ) ;
#112 = PERSON ( 'UNSPECIFIED', 'UNSPECIFIED', 'UNSPECIFIED', ('UNSPECIFIED'), ('UNSPECIFIED'), ('UNSPECIFIED') ) ;
#113 = PERSON_AND_ORGANIZATION ( #112, #172 ) ;
#114 = ADVANCED_FACE ( 'NONE', ( #130 ), #42, .F. ) ;
#115 = APPLICATION_CONTEXT ( 'configuration controlled 3d designs of mechanical parts and assemblies' ) ;
#116 = CYLINDRICAL_SURFACE ( 'NONE', #93, 37.49999999999999289 ) ;
#117 = CC_DESIGN_APPROVAL ( #22, ( #105 ) ) ;
#118 = CARTESIAN_POINT ( 'NONE',  ( 0.000000000000000000, 0.000000000000000000, 0.000000000000000000 ) ) ;
#119 = AXIS2_PLACEMENT_3D ( 'NONE', #79, #3, #160 ) ;
#120 = COORDINATED_UNIVERSAL_TIME_OFFSET ( 5, 0, .BEHIND. ) ;
#121 = DATE_AND_TIME ( #61, #20 ) ;
#122 = COORDINATED_UNIVERSAL_TIME_OFFSET ( 5, 0, .BEHIND. ) ;
#123 = APPROVAL ( #49, 'UNSPECIFIED' ) ;
#124 = CC_DESIGN_PERSON_AND_ORGANIZATION_ASSIGNMENT ( #58, #18, ( #7 ) ) ;
#125 =( NAMED_UNIT ( * ) PLANE_ANGLE_UNIT ( ) SI_UNIT ( $, .RADIAN. ) );
#126 = CC_DESIGN_SECURITY_CLASSIFICATION ( #137, ( #97 ) ) ;
#127 = ORIENTED_EDGE ( 'NONE', *, *, #67, .T. ) ;
#128 = EDGE_CURVE ( 'NONE', #148, #50, #11, .T. ) ;
#129 = UNCERTAINTY_MEASURE_WITH_UNIT (LENGTH_MEASURE( 1.000000000000000082E-05 ), #23, 'distance_accuracy_value', 'NONE');
#130 = FACE_OUTER_BOUND ( 'NONE', #37, .T. ) ;
#131 = CC_DESIGN_APPROVAL ( #123, ( #137 ) ) ;
#132 = APPROVAL ( #111, 'UNSPECIFIED' ) ;
#133 = CALENDAR_DATE ( 2022, 24, 1 ) ;
#134 = PRODUCT_DEFINITION_SHAPE ( 'NONE', 'NONE',  #105 ) ;
#135 = SECURITY_CLASSIFICATION_LEVEL ( 'unclassified' ) ;
#136 = APPROVAL_ROLE ( '' ) ;
#137 = SECURITY_CLASSIFICATION ( '', '', #135 ) ;
#138 = COORDINATED_UNIVERSAL_TIME_OFFSET ( 5, 0, .BEHIND. ) ;
#139 = EDGE_CURVE ( 'NONE', #103, #50, #85, .T. ) ;
#140 = LOCAL_TIME ( 11, 37, 55.00000000000000000, #152 ) ;
#141 = ADVANCED_BREP_SHAPE_REPRESENTATION ( 'Web Model 19924_19924', ( #89, #51 ), #43 ) ;
#142 = ORIENTED_EDGE ( 'NONE', *, *, #36, .F. ) ;
#143 = ORIENTED_EDGE ( 'NONE', *, *, #139, .F. ) ;
#144 = ORIENTED_EDGE ( 'NONE', *, *, #145, .F. ) ;
#145 = EDGE_CURVE ( 'NONE', #50, #103, #31, .T. ) ;
#146 = DIRECTION ( 'NONE',  ( -0.000000000000000000, -0.000000000000000000, -1.000000000000000000 ) ) ;
#147 = DIRECTION ( 'NONE',  ( 1.000000000000000000, 0.000000000000000000, 0.000000000000000000 ) ) ;
#148 = VERTEX_POINT ( 'NONE', #41 ) ;
#149 = LOCAL_TIME ( 11, 37, 55.00000000000000000, #138 ) ;
#150 = CARTESIAN_POINT ( 'NONE',  ( -37.49999999999999289, 0.000000000000000000, 5.000000000000000000 ) ) ;
#151 = CARTESIAN_POINT ( 'NONE',  ( 0.000000000000000000, 0.000000000000000000, 5.000000000000000000 ) ) ;
#152 = COORDINATED_UNIVERSAL_TIME_OFFSET ( 5, 0, .BEHIND. ) ;
#153 = AXIS2_PLACEMENT_3D ( 'NONE', #24, #165, #147 ) ;
#154 = CC_DESIGN_APPROVAL ( #132, ( #97 ) ) ;
#155 = CLOSED_SHELL ( 'NONE', ( #15, #162, #173, #114 ) ) ;
#156 = DATE_AND_TIME ( #133, #62 ) ;
#157 = ORIENTED_EDGE ( 'NONE', *, *, #67, .F. ) ;
#158 = ORIENTED_EDGE ( 'NONE', *, *, #110, .F. ) ;
#159 = CC_DESIGN_PERSON_AND_ORGANIZATION_ASSIGNMENT ( #96, #5, ( #97 ) ) ;
#160 = DIRECTION ( 'NONE',  ( -1.000000000000000000, 0.000000000000000000, 0.000000000000000000 ) ) ;
#161 = CARTESIAN_POINT ( 'NONE',  ( 37.49999999999999289, 4.592425496802573578E-15, 5.000000000000000000 ) ) ;
#162 = ADVANCED_FACE ( 'NONE', ( #95 ), #116, .T. ) ;
#163 = CARTESIAN_POINT ( 'NONE',  ( 37.49999999999999289, 4.592425496802573578E-15, 0.000000000000000000 ) ) ;
#164 = DIRECTION ( 'NONE',  ( -0.000000000000000000, -0.000000000000000000, -1.000000000000000000 ) ) ;
#165 = DIRECTION ( 'NONE',  ( 0.000000000000000000, 0.000000000000000000, 1.000000000000000000 ) ) ;
#166 = CALENDAR_DATE ( 2022, 24, 1 ) ;
#167 = MECHANICAL_CONTEXT ( 'NONE', #115, 'mechanical' ) ;
#168 = DESIGN_CONTEXT ( 'detailed design', #29, 'design' ) ;
#169 = PERSON_AND_ORGANIZATION ( #112, #172 ) ;
#170 = PERSON_AND_ORGANIZATION ( #112, #172 ) ;
#171 = PERSON_AND_ORGANIZATION ( #112, #172 ) ;
#172 = ORGANIZATION ( 'UNSPECIFIED', 'UNSPECIFIED', '' ) ;
#173 = ADVANCED_FACE ( 'NONE', ( #40 ), #94, .T. ) ;
#174 = ORIENTED_EDGE ( 'NONE', *, *, #128, .T. ) ;
#175 = EDGE_LOOP ( 'NONE', ( #142, #174, #26, #157 ) ) ;
ENDSEC;
END-ISO-10303-21;
