ISO-10303-21;
HEADER;
FILE_DESCRIPTION (( 'STEP AP203' ),
    '1' );
FILE_NAME ('Web Model 32950_45639.step',
    '2017-04-10T16:22:43',
    ( '' ),
    ( '' ),
    'SwSTEP 2.0',
    'SolidWorks 2016',
    '' );
FILE_SCHEMA (( 'CONFIG_CONTROL_DESIGN' ));
ENDSEC;

DATA;
#1 = CALENDAR_DATE ( 2017, 10, 4 ) ;
#2 = LOCAL_TIME ( 12, 22, 43.00000000000000000, #58 ) ;
#3 =( GEOMETRIC_REPRESENTATION_CONTEXT ( 3 ) GLOBAL_UNCERTAINTY_ASSIGNED_CONTEXT ( ( #124 ) ) GLOBAL_UNIT_ASSIGNED_CONTEXT ( ( #122, #80, #93 ) ) REPRESENTATION_CONTEXT ( 'NONE', 'WORKASPACE' ) );
#4 = APPROVAL ( #133, 'UNSPECIFIED' ) ;
#5 = FACE_OUTER_BOUND ( 'NONE', #26, .T. ) ;
#6 = PLANE ( 'NONE',  #166 ) ;
#7 = AXIS2_PLACEMENT_3D ( 'NONE', #139, #77, #17 ) ;
#8 = VECTOR ( 'NONE', #31, 1000.000000000000000 ) ;
#9 = DIRECTION ( 'NONE',  ( 1.000000000000000000, 0.0000000000000000000, 0.0000000000000000000 ) ) ;
#10 = DIRECTION ( 'NONE',  ( 1.000000000000000000, 0.0000000000000000000, 0.0000000000000000000 ) ) ;
#11 = APPROVAL_STATUS ( 'not_yet_approved' ) ;
#12 = CC_DESIGN_APPROVAL ( #4, ( #155 ) ) ;
#13 = APPLICATION_PROTOCOL_DEFINITION ( 'international standard', 'config_control_design', 1994, #128 ) ;
#14 = PERSON_AND_ORGANIZATION_ROLE ( 'design_owner' ) ;
#15 = AXIS2_PLACEMENT_3D ( 'NONE', #161, #118, #73 ) ;
#16 = CARTESIAN_POINT ( 'NONE',  ( 0.0000000000000000000, 0.0000000000000000000, 2.000000000000000000 ) ) ;
#17 = DIRECTION ( 'NONE',  ( -1.000000000000000000, 0.0000000000000000000, 0.0000000000000000000 ) ) ;
#18 = PERSON_AND_ORGANIZATION ( #60, #113 ) ;
#19 = APPROVAL_DATE_TIME ( #61, #115 ) ;
#20 = VECTOR ( 'NONE', #79, 1000.000000000000000 ) ;
#21 = CC_DESIGN_SECURITY_CLASSIFICATION ( #155, ( #104 ) ) ;
#22 = EDGE_CURVE ( 'NONE', #130, #95, #171, .T. ) ;
#23 = DIRECTION ( 'NONE',  ( -0.0000000000000000000, -0.0000000000000000000, -1.000000000000000000 ) ) ;
#24 = PERSON_AND_ORGANIZATION ( #60, #113 ) ;
#25 = DIRECTION ( 'NONE',  ( 0.0000000000000000000, 0.0000000000000000000, 1.000000000000000000 ) ) ;
#26 = EDGE_LOOP ( 'NONE', ( #72, #149 ) ) ;
#27 = DATE_AND_TIME ( #1, #37 ) ;
#28 = DIRECTION ( 'NONE',  ( 1.000000000000000000, 0.0000000000000000000, 0.0000000000000000000 ) ) ;
#29 = PRODUCT_RELATED_PRODUCT_CATEGORY ( 'detail', '', ( #85 ) ) ;
#30 = CIRCLE ( 'NONE', #163, 10.00000000000000000 ) ;
#31 = DIRECTION ( 'NONE',  ( -0.0000000000000000000, -0.0000000000000000000, -1.000000000000000000 ) ) ;
#32 = ORIENTED_EDGE ( 'NONE', *, *, #129, .T. ) ;
#33 = CIRCLE ( 'NONE', #172, 10.00000000000000000 ) ;
#34 = CYLINDRICAL_SURFACE ( 'NONE', #108, 10.00000000000000000 ) ;
#35 = APPROVAL_ROLE ( '' ) ;
#36 = DATE_AND_TIME ( #146, #2 ) ;
#37 = LOCAL_TIME ( 12, 22, 43.00000000000000000, #165 ) ;
#38 = PERSON_AND_ORGANIZATION_ROLE ( 'design_supplier' ) ;
#39 = AXIS2_PLACEMENT_3D ( 'NONE', #91, #43, #28 ) ;
#40 = LOCAL_TIME ( 12, 22, 43.00000000000000000, #160 ) ;
#41 = AXIS2_PLACEMENT_3D ( 'NONE', #141, #127, #114 ) ;
#42 = CYLINDRICAL_SURFACE ( 'NONE', #7, 10.00000000000000000 ) ;
#43 = DIRECTION ( 'NONE',  ( 0.0000000000000000000, 0.0000000000000000000, 1.000000000000000000 ) ) ;
#44 = EDGE_CURVE ( 'NONE', #152, #174, #33, .T. ) ;
#45 = ADVANCED_BREP_SHAPE_REPRESENTATION ( 'Web Model 32950_45639', ( #102, #39 ), #3 ) ;
#46 = FACE_OUTER_BOUND ( 'NONE', #89, .T. ) ;
#47 = CARTESIAN_POINT ( 'NONE',  ( -10.00000000000000000, 0.0000000000000000000, 2.000000000000000000 ) ) ;
#48 = PERSON_AND_ORGANIZATION ( #60, #113 ) ;
#49 = FACE_OUTER_BOUND ( 'NONE', #151, .T. ) ;
#50 = DIRECTION ( 'NONE',  ( 0.0000000000000000000, 0.0000000000000000000, 1.000000000000000000 ) ) ;
#51 = CC_DESIGN_PERSON_AND_ORGANIZATION_ASSIGNMENT ( #18, #14, ( #85 ) ) ;
#52 = APPROVAL_ROLE ( '' ) ;
#53 = ORIENTED_EDGE ( 'NONE', *, *, #44, .F. ) ;
#54 = CARTESIAN_POINT ( 'NONE',  ( -10.00000000000000000, 0.0000000000000000000, 0.0000000000000000000 ) ) ;
#55 = DIRECTION ( 'NONE',  ( 1.000000000000000000, 0.0000000000000000000, -0.0000000000000000000 ) ) ;
#56 = COORDINATED_UNIVERSAL_TIME_OFFSET ( 5, 0, .BEHIND. ) ;
#57 = FACE_OUTER_BOUND ( 'NONE', #144, .T. ) ;
#58 = COORDINATED_UNIVERSAL_TIME_OFFSET ( 5, 0, .BEHIND. ) ;
#59 = PRODUCT_DEFINITION ( 'UNKNOWN', '', #104, #120 ) ;
#60 = PERSON ( 'UNSPECIFIED', 'UNSPECIFIED', 'UNSPECIFIED', ('UNSPECIFIED'), ('UNSPECIFIED'), ('UNSPECIFIED') ) ;
#61 = DATE_AND_TIME ( #84, #175 ) ;
#62 = ORIENTED_EDGE ( 'NONE', *, *, #142, .F. ) ;
#63 = DIRECTION ( 'NONE',  ( 0.0000000000000000000, 0.0000000000000000000, 1.000000000000000000 ) ) ;
#64 = APPROVAL_PERSON_ORGANIZATION ( #116, #4, #52 ) ;
#65 = DATE_TIME_ROLE ( 'creation_date' ) ;
#66 = PRODUCT_DEFINITION_SHAPE ( 'NONE', 'NONE',  #59 ) ;
#67 = DIRECTION ( 'NONE',  ( 1.000000000000000000, 0.0000000000000000000, 0.0000000000000000000 ) ) ;
#68 = APPROVAL ( #74, 'UNSPECIFIED' ) ;
#69 = LINE ( 'NONE', #147, #8 ) ;
#70 = CARTESIAN_POINT ( 'NONE',  ( 0.0000000000000000000, 0.0000000000000000000, 0.0000000000000000000 ) ) ;
#71 = CARTESIAN_POINT ( 'NONE',  ( 10.00000000000000000, 1.224646799147353300E-015, 0.0000000000000000000 ) ) ;
#72 = ORIENTED_EDGE ( 'NONE', *, *, #109, .T. ) ;
#73 = DIRECTION ( 'NONE',  ( 1.000000000000000000, 0.0000000000000000000, 0.0000000000000000000 ) ) ;
#74 = APPROVAL_STATUS ( 'not_yet_approved' ) ;
#75 = CC_DESIGN_APPROVAL ( #68, ( #59 ) ) ;
#76 = PERSON_AND_ORGANIZATION_ROLE ( 'creator' ) ;
#77 = DIRECTION ( 'NONE',  ( -0.0000000000000000000, -0.0000000000000000000, -1.000000000000000000 ) ) ;
#78 = APPLICATION_PROTOCOL_DEFINITION ( 'international standard', 'config_control_design', 1994, #82 ) ;
#79 = DIRECTION ( 'NONE',  ( -0.0000000000000000000, -0.0000000000000000000, -1.000000000000000000 ) ) ;
#80 =( NAMED_UNIT ( * ) PLANE_ANGLE_UNIT ( ) SI_UNIT ( $, .RADIAN. ) );
#81 = PERSON_AND_ORGANIZATION ( #60, #113 ) ;
#82 = APPLICATION_CONTEXT ( 'configuration controlled 3d designs of mechanical parts and assemblies' ) ;
#83 = CC_DESIGN_PERSON_AND_ORGANIZATION_ASSIGNMENT ( #148, #76, ( #59 ) ) ;
#84 = CALENDAR_DATE ( 2017, 10, 4 ) ;
#85 = PRODUCT ( 'Web Model 32950_45639', 'Web Model 32950_45639', '', ( #96 ) ) ;
#86 = SECURITY_CLASSIFICATION_LEVEL ( 'unclassified' ) ;
#87 = APPROVAL_DATE_TIME ( #36, #68 ) ;
#88 = DIRECTION ( 'NONE',  ( 0.0000000000000000000, 0.0000000000000000000, 1.000000000000000000 ) ) ;
#89 = EDGE_LOOP ( 'NONE', ( #106, #134 ) ) ;
#90 = APPROVAL_ROLE ( '' ) ;
#91 = CARTESIAN_POINT ( 'NONE',  ( 0.0000000000000000000, 0.0000000000000000000, 0.0000000000000000000 ) ) ;
#92 = CARTESIAN_POINT ( 'NONE',  ( 10.00000000000000000, 1.224646799147353300E-015, 2.000000000000000000 ) ) ;
#93 =( NAMED_UNIT ( * ) SI_UNIT ( $, .STERADIAN. ) SOLID_ANGLE_UNIT ( ) );
#94 = CC_DESIGN_DATE_AND_TIME_ASSIGNMENT ( #159, #65, ( #59 ) ) ;
#95 = VERTEX_POINT ( 'NONE', #54 ) ;
#96 = MECHANICAL_CONTEXT ( 'NONE', #128, 'mechanical' ) ;
#97 = CALENDAR_DATE ( 2017, 10, 4 ) ;
#98 = SHAPE_DEFINITION_REPRESENTATION ( #66, #45 ) ;
#99 = CARTESIAN_POINT ( 'NONE',  ( 0.0000000000000000000, 0.0000000000000000000, 0.0000000000000000000 ) ) ;
#100 = APPROVAL_PERSON_ORGANIZATION ( #81, #115, #35 ) ;
#101 = DIRECTION ( 'NONE',  ( -1.000000000000000000, 0.0000000000000000000, 0.0000000000000000000 ) ) ;
#102 = MANIFOLD_SOLID_BREP ( 'Extrude1', #137 ) ;
#103 = LINE ( 'NONE', #47, #20 ) ;
#104 = PRODUCT_DEFINITION_FORMATION_WITH_SPECIFIED_SOURCE ( 'ANY', '', #85, .NOT_KNOWN. ) ;
#105 = DATE_AND_TIME ( #97, #123 ) ;
#106 = ORIENTED_EDGE ( 'NONE', *, *, #110, .F. ) ;
#107 = CARTESIAN_POINT ( 'NONE',  ( -10.00000000000000000, 0.0000000000000000000, 2.000000000000000000 ) ) ;
#108 = AXIS2_PLACEMENT_3D ( 'NONE', #157, #23, #101 ) ;
#109 = EDGE_CURVE ( 'NONE', #174, #152, #30, .T. ) ;
#110 = EDGE_CURVE ( 'NONE', #95, #130, #156, .T. ) ;
#111 = ORIENTED_EDGE ( 'NONE', *, *, #22, .T. ) ;
#112 = APPROVAL_DATE_TIME ( #27, #4 ) ;
#113 = ORGANIZATION ( 'UNSPECIFIED', 'UNSPECIFIED', '' ) ;
#114 = DIRECTION ( 'NONE',  ( 1.000000000000000000, 0.0000000000000000000, -0.0000000000000000000 ) ) ;
#115 = APPROVAL ( #11, 'UNSPECIFIED' ) ;
#116 = PERSON_AND_ORGANIZATION ( #60, #113 ) ;
#117 = COORDINATED_UNIVERSAL_TIME_OFFSET ( 5, 0, .BEHIND. ) ;
#118 = DIRECTION ( 'NONE',  ( 0.0000000000000000000, 0.0000000000000000000, 1.000000000000000000 ) ) ;
#119 = DATE_TIME_ROLE ( 'classification_date' ) ;
#120 = DESIGN_CONTEXT ( 'detailed design', #82, 'design' ) ;
#121 = ORIENTED_EDGE ( 'NONE', *, *, #109, .F. ) ;
#122 =( LENGTH_UNIT ( ) NAMED_UNIT ( * ) SI_UNIT ( .MILLI., .METRE. ) );
#123 = LOCAL_TIME ( 12, 22, 43.00000000000000000, #56 ) ;
#124 = UNCERTAINTY_MEASURE_WITH_UNIT (LENGTH_MEASURE( 1.000000000000000100E-005 ), #122, 'distance_accuracy_value', 'NONE');
#125 = APPROVAL_PERSON_ORGANIZATION ( #140, #68, #90 ) ;
#126 = CC_DESIGN_APPROVAL ( #115, ( #104 ) ) ;
#127 = DIRECTION ( 'NONE',  ( 0.0000000000000000000, 0.0000000000000000000, 1.000000000000000000 ) ) ;
#128 = APPLICATION_CONTEXT ( 'configuration controlled 3d designs of mechanical parts and assemblies' ) ;
#129 = EDGE_CURVE ( 'NONE', #152, #130, #69, .T. ) ;
#130 = VERTEX_POINT ( 'NONE', #71 ) ;
#131 = ADVANCED_FACE ( 'NONE', ( #5 ), #154, .T. ) ;
#132 = CARTESIAN_POINT ( 'NONE',  ( 0.0000000000000000000, 0.0000000000000000000, 2.000000000000000000 ) ) ;
#133 = APPROVAL_STATUS ( 'not_yet_approved' ) ;
#134 = ORIENTED_EDGE ( 'NONE', *, *, #22, .F. ) ;
#135 = CC_DESIGN_PERSON_AND_ORGANIZATION_ASSIGNMENT ( #162, #170, ( #104 ) ) ;
#136 = ADVANCED_FACE ( 'NONE', ( #57 ), #34, .T. ) ;
#137 = CLOSED_SHELL ( 'NONE', ( #153, #136, #131, #138 ) ) ;
#138 = ADVANCED_FACE ( 'NONE', ( #46 ), #6, .F. ) ;
#139 = CARTESIAN_POINT ( 'NONE',  ( 0.0000000000000000000, 0.0000000000000000000, 2.000000000000000000 ) ) ;
#140 = PERSON_AND_ORGANIZATION ( #60, #113 ) ;
#141 = CARTESIAN_POINT ( 'NONE',  ( 0.0000000000000000000, 0.0000000000000000000, 2.000000000000000000 ) ) ;
#142 = EDGE_CURVE ( 'NONE', #174, #95, #103, .T. ) ;
#143 = ORIENTED_EDGE ( 'NONE', *, *, #129, .F. ) ;
#144 = EDGE_LOOP ( 'NONE', ( #143, #121, #158, #169 ) ) ;
#145 = CC_DESIGN_PERSON_AND_ORGANIZATION_ASSIGNMENT ( #48, #38, ( #104 ) ) ;
#146 = CALENDAR_DATE ( 2017, 10, 4 ) ;
#147 = CARTESIAN_POINT ( 'NONE',  ( 10.00000000000000000, 1.224646799147353300E-015, 2.000000000000000000 ) ) ;
#148 = PERSON_AND_ORGANIZATION ( #60, #113 ) ;
#149 = ORIENTED_EDGE ( 'NONE', *, *, #44, .T. ) ;
#150 = PERSON_AND_ORGANIZATION_ROLE ( 'classification_officer' ) ;
#151 = EDGE_LOOP ( 'NONE', ( #53, #32, #111, #62 ) ) ;
#152 = VERTEX_POINT ( 'NONE', #92 ) ;
#153 = ADVANCED_FACE ( 'NONE', ( #49 ), #42, .T. ) ;
#154 = PLANE ( 'NONE',  #41 ) ;
#155 = SECURITY_CLASSIFICATION ( '', '', #86 ) ;
#156 = CIRCLE ( 'NONE', #15, 10.00000000000000000 ) ;
#157 = CARTESIAN_POINT ( 'NONE',  ( 0.0000000000000000000, 0.0000000000000000000, 2.000000000000000000 ) ) ;
#158 = ORIENTED_EDGE ( 'NONE', *, *, #142, .T. ) ;
#159 = DATE_AND_TIME ( #168, #40 ) ;
#160 = COORDINATED_UNIVERSAL_TIME_OFFSET ( 5, 0, .BEHIND. ) ;
#161 = CARTESIAN_POINT ( 'NONE',  ( 0.0000000000000000000, 0.0000000000000000000, 0.0000000000000000000 ) ) ;
#162 = PERSON_AND_ORGANIZATION ( #60, #113 ) ;
#163 = AXIS2_PLACEMENT_3D ( 'NONE', #132, #63, #9 ) ;
#164 = CC_DESIGN_PERSON_AND_ORGANIZATION_ASSIGNMENT ( #24, #150, ( #155 ) ) ;
#165 = COORDINATED_UNIVERSAL_TIME_OFFSET ( 5, 0, .BEHIND. ) ;
#166 = AXIS2_PLACEMENT_3D ( 'NONE', #70, #50, #55 ) ;
#167 = AXIS2_PLACEMENT_3D ( 'NONE', #99, #25, #67 ) ;
#168 = CALENDAR_DATE ( 2017, 10, 4 ) ;
#169 = ORIENTED_EDGE ( 'NONE', *, *, #110, .T. ) ;
#170 = PERSON_AND_ORGANIZATION_ROLE ( 'creator' ) ;
#171 = CIRCLE ( 'NONE', #167, 10.00000000000000000 ) ;
#172 = AXIS2_PLACEMENT_3D ( 'NONE', #16, #88, #10 ) ;
#173 = CC_DESIGN_DATE_AND_TIME_ASSIGNMENT ( #105, #119, ( #155 ) ) ;
#174 = VERTEX_POINT ( 'NONE', #107 ) ;
#175 = LOCAL_TIME ( 12, 22, 43.00000000000000000, #117 ) ;
ENDSEC;
END-ISO-10303-21;
