ISO-10303-21;
HEADER;
FILE_DESCRIPTION (( 'STEP AP203' ),
    '1' );
FILE_NAME ('43369C_36550.step',
    '2017-07-20T12:44:50',
    ( '' ),
    ( '' ),
    'SwSTEP 2.0',
    'SolidWorks 2016',
    '' );
FILE_SCHEMA (( 'CONFIG_CONTROL_DESIGN' ));
ENDSEC;

DATA;
#1 = DIRECTION ( 'NONE',  ( 1.000000000000000000, 0.0000000000000000000, -0.0000000000000000000 ) ) ;
#2 = DIRECTION ( 'NONE',  ( 1.000000000000000000, 0.0000000000000000000, 0.0000000000000000000 ) ) ;
#3 = CLOSED_SHELL ( 'NONE', ( #72, #124, #22, #136 ) ) ;
#4 = COORDINATED_UNIVERSAL_TIME_OFFSET ( 5, 0, .BEHIND. ) ;
#5 = APPROVAL ( #158, 'UNSPECIFIED' ) ;
#6 =( GEOMETRIC_REPRESENTATION_CONTEXT ( 3 ) GLOBAL_UNCERTAINTY_ASSIGNED_CONTEXT ( ( #167 ) ) GLOBAL_UNIT_ASSIGNED_CONTEXT ( ( #101, #32, #70 ) ) REPRESENTATION_CONTEXT ( 'NONE', 'WORKASPACE' ) );
#7 = PERSON_AND_ORGANIZATION ( #145, #38 ) ;
#8 = ORIENTED_EDGE ( 'NONE', *, *, #82, .F. ) ;
#9 = ORIENTED_EDGE ( 'NONE', *, *, #90, .T. ) ;
#10 = PERSON_AND_ORGANIZATION ( #145, #38 ) ;
#11 = APPROVAL_ROLE ( '' ) ;
#12 = CARTESIAN_POINT ( 'NONE',  ( -12.50000000000000000, 0.0000000000000000000, 1.149999999999999900 ) ) ;
#13 = ORIENTED_EDGE ( 'NONE', *, *, #93, .F. ) ;
#14 = CARTESIAN_POINT ( 'NONE',  ( 12.50000000000000000, 1.530808498934191500E-015, -1.149999999999999900 ) ) ;
#15 = CARTESIAN_POINT ( 'NONE',  ( 0.0000000000000000000, 0.0000000000000000000, -1.149999999999999900 ) ) ;
#16 = ORIENTED_EDGE ( 'NONE', *, *, #90, .F. ) ;
#17 = APPROVAL_DATE_TIME ( #170, #5 ) ;
#18 = CC_DESIGN_APPROVAL ( #5, ( #175 ) ) ;
#19 = DIRECTION ( 'NONE',  ( 0.0000000000000000000, 0.0000000000000000000, 1.000000000000000000 ) ) ;
#20 = PERSON_AND_ORGANIZATION_ROLE ( 'design_owner' ) ;
#21 = VERTEX_POINT ( 'NONE', #14 ) ;
#22 = ADVANCED_FACE ( 'NONE', ( #39 ), #79, .T. ) ;
#23 = ORIENTED_EDGE ( 'NONE', *, *, #107, .F. ) ;
#24 = DATE_AND_TIME ( #47, #173 ) ;
#25 = CC_DESIGN_SECURITY_CLASSIFICATION ( #175, ( #128 ) ) ;
#26 = AXIS2_PLACEMENT_3D ( 'NONE', #71, #163, #33 ) ;
#27 = SECURITY_CLASSIFICATION_LEVEL ( 'unclassified' ) ;
#28 = SHAPE_DEFINITION_REPRESENTATION ( #164, #30 ) ;
#29 = DATE_TIME_ROLE ( 'classification_date' ) ;
#30 = ADVANCED_BREP_SHAPE_REPRESENTATION ( '43369C_36550', ( #54, #67 ), #6 ) ;
#31 = EDGE_LOOP ( 'NONE', ( #8, #172, #147, #16 ) ) ;
#32 =( NAMED_UNIT ( * ) PLANE_ANGLE_UNIT ( ) SI_UNIT ( $, .RADIAN. ) );
#33 = DIRECTION ( 'NONE',  ( -1.000000000000000000, 0.0000000000000000000, 0.0000000000000000000 ) ) ;
#34 = DIRECTION ( 'NONE',  ( 0.0000000000000000000, 0.0000000000000000000, 1.000000000000000000 ) ) ;
#35 = EDGE_LOOP ( 'NONE', ( #23, #78 ) ) ;
#36 = PRODUCT_RELATED_PRODUCT_CATEGORY ( 'detail', '', ( #96 ) ) ;
#37 = AXIS2_PLACEMENT_3D ( 'NONE', #85, #55, #1 ) ;
#38 = ORGANIZATION ( 'UNSPECIFIED', 'UNSPECIFIED', '' ) ;
#39 = FACE_OUTER_BOUND ( 'NONE', #52, .T. ) ;
#40 = CALENDAR_DATE ( 2017, 20, 7 ) ;
#41 = DIRECTION ( 'NONE',  ( 1.000000000000000000, 0.0000000000000000000, -0.0000000000000000000 ) ) ;
#42 = PERSON_AND_ORGANIZATION_ROLE ( 'classification_officer' ) ;
#43 = APPROVAL_PERSON_ORGANIZATION ( #100, #138, #95 ) ;
#44 = CIRCLE ( 'NONE', #125, 12.50000000000000000 ) ;
#45 = CALENDAR_DATE ( 2017, 20, 7 ) ;
#46 = CIRCLE ( 'NONE', #140, 12.50000000000000000 ) ;
#47 = CALENDAR_DATE ( 2017, 20, 7 ) ;
#48 = CALENDAR_DATE ( 2017, 20, 7 ) ;
#49 = ORIENTED_EDGE ( 'NONE', *, *, #102, .F. ) ;
#50 = DIRECTION ( 'NONE',  ( 0.0000000000000000000, 0.0000000000000000000, 1.000000000000000000 ) ) ;
#51 = FACE_OUTER_BOUND ( 'NONE', #31, .T. ) ;
#52 = EDGE_LOOP ( 'NONE', ( #59, #112 ) ) ;
#53 = APPLICATION_CONTEXT ( 'configuration controlled 3d designs of mechanical parts and assemblies' ) ;
#54 = MANIFOLD_SOLID_BREP ( 'Boss-Extrude1', #3 ) ;
#55 = DIRECTION ( 'NONE',  ( 0.0000000000000000000, 0.0000000000000000000, 1.000000000000000000 ) ) ;
#56 = LINE ( 'NONE', #127, #91 ) ;
#57 = PERSON_AND_ORGANIZATION ( #145, #38 ) ;
#58 = DESIGN_CONTEXT ( 'detailed design', #53, 'design' ) ;
#59 = ORIENTED_EDGE ( 'NONE', *, *, #102, .T. ) ;
#60 = LINE ( 'NONE', #144, #81 ) ;
#61 = DATE_TIME_ROLE ( 'creation_date' ) ;
#62 = COORDINATED_UNIVERSAL_TIME_OFFSET ( 5, 0, .BEHIND. ) ;
#63 = DIRECTION ( 'NONE',  ( -1.000000000000000000, 0.0000000000000000000, 0.0000000000000000000 ) ) ;
#64 = PERSON_AND_ORGANIZATION_ROLE ( 'creator' ) ;
#65 = DIRECTION ( 'NONE',  ( 1.000000000000000000, 0.0000000000000000000, 0.0000000000000000000 ) ) ;
#66 = CYLINDRICAL_SURFACE ( 'NONE', #26, 12.50000000000000000 ) ;
#67 = AXIS2_PLACEMENT_3D ( 'NONE', #99, #87, #2 ) ;
#68 = COORDINATED_UNIVERSAL_TIME_OFFSET ( 5, 0, .BEHIND. ) ;
#69 = MECHANICAL_CONTEXT ( 'NONE', #86, 'mechanical' ) ;
#70 =( NAMED_UNIT ( * ) SI_UNIT ( $, .STERADIAN. ) SOLID_ANGLE_UNIT ( ) );
#71 = CARTESIAN_POINT ( 'NONE',  ( 0.0000000000000000000, 0.0000000000000000000, 1.149999999999999900 ) ) ;
#72 = ADVANCED_FACE ( 'NONE', ( #51 ), #76, .T. ) ;
#73 = VERTEX_POINT ( 'NONE', #171 ) ;
#74 = LOCAL_TIME ( 8, 44, 50.00000000000000000, #4 ) ;
#75 = APPROVAL_DATE_TIME ( #165, #138 ) ;
#76 = CYLINDRICAL_SURFACE ( 'NONE', #151, 12.50000000000000000 ) ;
#77 = CC_DESIGN_PERSON_AND_ORGANIZATION_ASSIGNMENT ( #57, #20, ( #96 ) ) ;
#78 = ORIENTED_EDGE ( 'NONE', *, *, #97, .F. ) ;
#79 = PLANE ( 'NONE',  #132 ) ;
#80 = DIRECTION ( 'NONE',  ( -0.0000000000000000000, -0.0000000000000000000, -1.000000000000000000 ) ) ;
#81 = VECTOR ( 'NONE', #118, 1000.000000000000000 ) ;
#82 = EDGE_CURVE ( 'NONE', #152, #120, #46, .T. ) ;
#83 = PERSON_AND_ORGANIZATION ( #145, #38 ) ;
#84 = ORIENTED_EDGE ( 'NONE', *, *, #107, .T. ) ;
#85 = CARTESIAN_POINT ( 'NONE',  ( 0.0000000000000000000, 0.0000000000000000000, -1.149999999999999900 ) ) ;
#86 = APPLICATION_CONTEXT ( 'configuration controlled 3d designs of mechanical parts and assemblies' ) ;
#87 = DIRECTION ( 'NONE',  ( 0.0000000000000000000, 0.0000000000000000000, 1.000000000000000000 ) ) ;
#88 = LOCAL_TIME ( 8, 44, 50.00000000000000000, #68 ) ;
#89 = PRODUCT_DEFINITION ( 'UNKNOWN', '', #128, #58 ) ;
#90 = EDGE_CURVE ( 'NONE', #120, #73, #60, .T. ) ;
#91 = VECTOR ( 'NONE', #142, 1000.000000000000000 ) ;
#92 = PERSON_AND_ORGANIZATION ( #145, #38 ) ;
#93 = EDGE_CURVE ( 'NONE', #152, #21, #56, .T. ) ;
#94 = CARTESIAN_POINT ( 'NONE',  ( 0.0000000000000000000, 0.0000000000000000000, 1.149999999999999900 ) ) ;
#95 = APPROVAL_ROLE ( '' ) ;
#96 = PRODUCT ( '43369C_36550', '43369C_36550', '', ( #69 ) ) ;
#97 = EDGE_CURVE ( 'NONE', #21, #73, #44, .T. ) ;
#98 = APPROVAL ( #174, 'UNSPECIFIED' ) ;
#99 = CARTESIAN_POINT ( 'NONE',  ( 0.0000000000000000000, 0.0000000000000000000, 0.0000000000000000000 ) ) ;
#100 = PERSON_AND_ORGANIZATION ( #145, #38 ) ;
#101 =( LENGTH_UNIT ( ) NAMED_UNIT ( * ) SI_UNIT ( .MILLI., .METRE. ) );
#102 = EDGE_CURVE ( 'NONE', #120, #152, #104, .T. ) ;
#103 = LOCAL_TIME ( 8, 44, 50.00000000000000000, #153 ) ;
#104 = CIRCLE ( 'NONE', #160, 12.50000000000000000 ) ;
#105 = CC_DESIGN_APPROVAL ( #98, ( #89 ) ) ;
#106 = CIRCLE ( 'NONE', #169, 12.50000000000000000 ) ;
#107 = EDGE_CURVE ( 'NONE', #73, #21, #106, .T. ) ;
#108 = APPROVAL_PERSON_ORGANIZATION ( #83, #98, #110 ) ;
#109 = PLANE ( 'NONE',  #37 ) ;
#110 = APPROVAL_ROLE ( '' ) ;
#111 = CARTESIAN_POINT ( 'NONE',  ( 0.0000000000000000000, 0.0000000000000000000, 1.149999999999999900 ) ) ;
#112 = ORIENTED_EDGE ( 'NONE', *, *, #82, .T. ) ;
#113 = APPROVAL_PERSON_ORGANIZATION ( #92, #5, #11 ) ;
#114 = PERSON_AND_ORGANIZATION ( #145, #38 ) ;
#115 = CC_DESIGN_PERSON_AND_ORGANIZATION_ASSIGNMENT ( #7, #134, ( #89 ) ) ;
#116 = FACE_OUTER_BOUND ( 'NONE', #154, .T. ) ;
#117 = CARTESIAN_POINT ( 'NONE',  ( 0.0000000000000000000, 0.0000000000000000000, 1.149999999999999900 ) ) ;
#118 = DIRECTION ( 'NONE',  ( -0.0000000000000000000, -0.0000000000000000000, -1.000000000000000000 ) ) ;
#119 = DATE_AND_TIME ( #40, #103 ) ;
#120 = VERTEX_POINT ( 'NONE', #12 ) ;
#121 = CC_DESIGN_DATE_AND_TIME_ASSIGNMENT ( #119, #61, ( #89 ) ) ;
#122 = DIRECTION ( 'NONE',  ( 1.000000000000000000, 0.0000000000000000000, 0.0000000000000000000 ) ) ;
#123 = CARTESIAN_POINT ( 'NONE',  ( 0.0000000000000000000, 0.0000000000000000000, -1.149999999999999900 ) ) ;
#124 = ADVANCED_FACE ( 'NONE', ( #116 ), #66, .T. ) ;
#125 = AXIS2_PLACEMENT_3D ( 'NONE', #15, #131, #157 ) ;
#126 = APPROVAL_DATE_TIME ( #133, #98 ) ;
#127 = CARTESIAN_POINT ( 'NONE',  ( 12.50000000000000000, 1.530808498934191500E-015, 1.149999999999999900 ) ) ;
#128 = PRODUCT_DEFINITION_FORMATION_WITH_SPECIFIED_SOURCE ( 'ANY', '', #96, .NOT_KNOWN. ) ;
#129 = CARTESIAN_POINT ( 'NONE',  ( 0.0000000000000000000, 0.0000000000000000000, 1.149999999999999900 ) ) ;
#130 = PERSON_AND_ORGANIZATION_ROLE ( 'design_supplier' ) ;
#131 = DIRECTION ( 'NONE',  ( 0.0000000000000000000, 0.0000000000000000000, 1.000000000000000000 ) ) ;
#132 = AXIS2_PLACEMENT_3D ( 'NONE', #129, #50, #41 ) ;
#133 = DATE_AND_TIME ( #48, #88 ) ;
#134 = PERSON_AND_ORGANIZATION_ROLE ( 'creator' ) ;
#135 = CARTESIAN_POINT ( 'NONE',  ( 12.50000000000000000, 1.530808498934191500E-015, 1.149999999999999900 ) ) ;
#136 = ADVANCED_FACE ( 'NONE', ( #139 ), #109, .F. ) ;
#137 = CALENDAR_DATE ( 2017, 20, 7 ) ;
#138 = APPROVAL ( #143, 'UNSPECIFIED' ) ;
#139 = FACE_OUTER_BOUND ( 'NONE', #35, .T. ) ;
#140 = AXIS2_PLACEMENT_3D ( 'NONE', #117, #155, #65 ) ;
#141 = LOCAL_TIME ( 8, 44, 50.00000000000000000, #62 ) ;
#142 = DIRECTION ( 'NONE',  ( -0.0000000000000000000, -0.0000000000000000000, -1.000000000000000000 ) ) ;
#143 = APPROVAL_STATUS ( 'not_yet_approved' ) ;
#144 = CARTESIAN_POINT ( 'NONE',  ( -12.50000000000000000, 0.0000000000000000000, 1.149999999999999900 ) ) ;
#145 = PERSON ( 'UNSPECIFIED', 'UNSPECIFIED', 'UNSPECIFIED', ('UNSPECIFIED'), ('UNSPECIFIED'), ('UNSPECIFIED') ) ;
#146 = APPLICATION_PROTOCOL_DEFINITION ( 'international standard', 'config_control_design', 1994, #53 ) ;
#147 = ORIENTED_EDGE ( 'NONE', *, *, #97, .T. ) ;
#148 = CC_DESIGN_APPROVAL ( #138, ( #128 ) ) ;
#149 = APPLICATION_PROTOCOL_DEFINITION ( 'international standard', 'config_control_design', 1994, #86 ) ;
#150 = COORDINATED_UNIVERSAL_TIME_OFFSET ( 5, 0, .BEHIND. ) ;
#151 = AXIS2_PLACEMENT_3D ( 'NONE', #94, #80, #63 ) ;
#152 = VERTEX_POINT ( 'NONE', #135 ) ;
#153 = COORDINATED_UNIVERSAL_TIME_OFFSET ( 5, 0, .BEHIND. ) ;
#154 = EDGE_LOOP ( 'NONE', ( #13, #49, #9, #84 ) ) ;
#155 = DIRECTION ( 'NONE',  ( 0.0000000000000000000, 0.0000000000000000000, 1.000000000000000000 ) ) ;
#156 = CC_DESIGN_PERSON_AND_ORGANIZATION_ASSIGNMENT ( #10, #64, ( #128 ) ) ;
#157 = DIRECTION ( 'NONE',  ( 1.000000000000000000, 0.0000000000000000000, 0.0000000000000000000 ) ) ;
#158 = APPROVAL_STATUS ( 'not_yet_approved' ) ;
#159 = CC_DESIGN_PERSON_AND_ORGANIZATION_ASSIGNMENT ( #161, #42, ( #175 ) ) ;
#160 = AXIS2_PLACEMENT_3D ( 'NONE', #111, #34, #162 ) ;
#161 = PERSON_AND_ORGANIZATION ( #145, #38 ) ;
#162 = DIRECTION ( 'NONE',  ( 1.000000000000000000, 0.0000000000000000000, 0.0000000000000000000 ) ) ;
#163 = DIRECTION ( 'NONE',  ( -0.0000000000000000000, -0.0000000000000000000, -1.000000000000000000 ) ) ;
#164 = PRODUCT_DEFINITION_SHAPE ( 'NONE', 'NONE',  #89 ) ;
#165 = DATE_AND_TIME ( #137, #141 ) ;
#166 = CC_DESIGN_PERSON_AND_ORGANIZATION_ASSIGNMENT ( #114, #130, ( #128 ) ) ;
#167 = UNCERTAINTY_MEASURE_WITH_UNIT (LENGTH_MEASURE( 1.000000000000000100E-005 ), #101, 'distance_accuracy_value', 'NONE');
#168 = CC_DESIGN_DATE_AND_TIME_ASSIGNMENT ( #24, #29, ( #175 ) ) ;
#169 = AXIS2_PLACEMENT_3D ( 'NONE', #123, #19, #122 ) ;
#170 = DATE_AND_TIME ( #45, #74 ) ;
#171 = CARTESIAN_POINT ( 'NONE',  ( -12.50000000000000000, 0.0000000000000000000, -1.149999999999999900 ) ) ;
#172 = ORIENTED_EDGE ( 'NONE', *, *, #93, .T. ) ;
#173 = LOCAL_TIME ( 8, 44, 50.00000000000000000, #150 ) ;
#174 = APPROVAL_STATUS ( 'not_yet_approved' ) ;
#175 = SECURITY_CLASSIFICATION ( '', '', #27 ) ;
ENDSEC;
END-ISO-10303-21;
