ISO-10303-21;
HEADER;
FILE_DESCRIPTION (( 'STEP AP203' ),
    '1' );
FILE_NAME ('20197-E0W.STEP',
    '2009-09-14T19:41:18',
    ( 'Admin' ),
    ( 'Thorlabs, Inc.' ),
    'SwSTEP 2.0',
    'SolidWorks 2007',
    '' );
FILE_SCHEMA (( 'CONFIG_CONTROL_DESIGN' ));
ENDSEC;

DATA;
#1 = VERTEX_POINT ( 'NONE', #51 ) ;
#2 = ORIENTED_EDGE ( 'NONE', *, *, #4, .F. ) ;
#3 = VERTEX_POINT ( 'NONE', #50 ) ;
#4 = EDGE_CURVE ( 'NONE', #1, #3, #61, .T. ) ;
#5 = EDGE_LOOP ( 'NONE', ( #13, #20, #16 ) ) ;
#6 = EDGE_CURVE ( 'NONE', #14, #21, #55, .T. ) ;
#7 = ORIENTED_EDGE ( 'NONE', *, *, #22, .T. ) ;
#8 = ORIENTED_EDGE ( 'NONE', *, *, #15, .T. ) ;
#9 = ADVANCED_FACE ( 'NONE', ( #56 ), #46, .T. ) ;
#10 = EDGE_CURVE ( 'NONE', #18, #14, #105, .T. ) ;
#11 = MANIFOLD_SOLID_BREP ( 'NONE', #27 ) ;
#12 = EDGE_LOOP ( 'NONE', ( #8, #7, #2, #39 ) ) ;
#13 = ORIENTED_EDGE ( 'NONE', *, *, #10, .F. ) ;
#14 = VERTEX_POINT ( 'NONE', #97 ) ;
#15 = EDGE_CURVE ( 'NONE', #14, #18, #114, .T. ) ;
#16 = ORIENTED_EDGE ( 'NONE', *, *, #6, .F. ) ;
#17 = ADVANCED_FACE ( 'NONE', ( #63 ), #99, .F. ) ;
#18 = VERTEX_POINT ( 'NONE', #90 ) ;
#19 = EDGE_CURVE ( 'NONE', #18, #21, #95, .T. ) ;
#20 = ORIENTED_EDGE ( 'NONE', *, *, #19, .T. ) ;
#21 = VERTEX_POINT ( 'NONE', #96 ) ;
#22 = EDGE_CURVE ( 'NONE', #18, #3, #116, .T. ) ;
#23 = UNCERTAINTY_MEASURE_WITH_UNIT (LENGTH_MEASURE( 1.000000000000000100E-005 ), #86, 'distance_accuracy_value', 'NONE');
#24 =( GEOMETRIC_REPRESENTATION_CONTEXT ( 3 ) GLOBAL_UNCERTAINTY_ASSIGNED_CONTEXT ( ( #23 ) ) GLOBAL_UNIT_ASSIGNED_CONTEXT ( ( #86, #85, #84 ) ) REPRESENTATION_CONTEXT ( 'NONE', 'WORKASPACE' ) );
#25 = ADVANCED_BREP_SHAPE_REPRESENTATION ( '20197-E0W', ( #11, #187 ), #24 ) ;
#26 = ADVANCED_FACE ( 'NONE', ( #70 ), #100, .T. ) ;
#27 = CLOSED_SHELL ( 'NONE', ( #17, #9, #36, #26, #43 ) ) ;
#28 = ORIENTED_EDGE ( 'NONE', *, *, #6, .T. ) ;
#29 = ORIENTED_EDGE ( 'NONE', *, *, #40, .F. ) ;
#30 = ORIENTED_EDGE ( 'NONE', *, *, #38, .T. ) ;
#31 = EDGE_LOOP ( 'NONE', ( #35, #34, #30, #29 ) ) ;
#32 = ORIENTED_EDGE ( 'NONE', *, *, #15, .F. ) ;
#33 = ORIENTED_EDGE ( 'NONE', *, *, #19, .F. ) ;
#34 = ORIENTED_EDGE ( 'NONE', *, *, #10, .T. ) ;
#35 = ORIENTED_EDGE ( 'NONE', *, *, #22, .F. ) ;
#36 = ADVANCED_FACE ( 'NONE', ( #68 ), #73, .T. ) ;
#37 = EDGE_LOOP ( 'NONE', ( #42, #41 ) ) ;
#38 = EDGE_CURVE ( 'NONE', #14, #1, #74, .T. ) ;
#39 = ORIENTED_EDGE ( 'NONE', *, *, #38, .F. ) ;
#40 = EDGE_CURVE ( 'NONE', #3, #1, #79, .T. ) ;
#41 = ORIENTED_EDGE ( 'NONE', *, *, #40, .T. ) ;
#42 = ORIENTED_EDGE ( 'NONE', *, *, #4, .T. ) ;
#43 = ADVANCED_FACE ( 'NONE', ( #80 ), #75, .F. ) ;
#44 = EDGE_LOOP ( 'NONE', ( #33, #32, #28 ) ) ;
#45 = DIRECTION ( 'NONE',  ( 0.0000000000000000000, 1.000000000000000000, 3.073328992872296400E-016 ) ) ;
#46 = CYLINDRICAL_SURFACE ( 'NONE', #49, 12.69999999999999900 ) ;
#47 = CARTESIAN_POINT ( 'NONE',  ( 0.0000000000000000000, 1.836909530733565100E-016, -1.000000000000000000 ) ) ;
#48 = DIRECTION ( 'NONE',  ( 0.0000000000000000000, 3.061515884555943100E-016, -1.000000000000000000 ) ) ;
#49 = AXIS2_PLACEMENT_3D ( 'NONE', #47, #48, #45 ) ;
#50 = CARTESIAN_POINT ( 'NONE',  ( 1.555250069354419100E-015, -12.69999999999999900, -1.000000000000007800 ) ) ;
#51 = CARTESIAN_POINT ( 'NONE',  ( 0.0000000000000000000, 12.69999999999999900, -1.000000000000000000 ) ) ;
#52 = DIRECTION ( 'NONE',  ( 0.0000000000000000000, 0.0000000000000000000, 1.000000000000000000 ) ) ;
#53 = DIRECTION ( 'NONE',  ( -1.000000000000000000, 0.0000000000000000000, 0.0000000000000000000 ) ) ;
#54 = AXIS2_PLACEMENT_3D ( 'NONE', #62, #53, #52 ) ;
#55 = CIRCLE ( 'NONE', #54, 70.13299999999999600 ) ;
#56 = FACE_OUTER_BOUND ( 'NONE', #12, .T. ) ;
#57 = DIRECTION ( 'NONE',  ( 0.0000000000000000000, 1.000000000000000000, 3.073328992872296400E-016 ) ) ;
#58 = DIRECTION ( 'NONE',  ( 0.0000000000000000000, 3.061515884555943100E-016, -1.000000000000000000 ) ) ;
#59 = CARTESIAN_POINT ( 'NONE',  ( 0.0000000000000000000, 1.836909530733577000E-016, -1.000000000000004000 ) ) ;
#60 = AXIS2_PLACEMENT_3D ( 'NONE', #59, #58, #57 ) ;
#61 = CIRCLE ( 'NONE', #60, 12.69999999999999900 ) ;
#62 = CARTESIAN_POINT ( 'NONE',  ( 0.0000000000000000000, -8.833453012026954700E-015, 71.13299999999999600 ) ) ;
#63 = FACE_OUTER_BOUND ( 'NONE', #5, .T. ) ;
#64 = DIRECTION ( 'NONE',  ( 0.0000000000000000000, 1.000000000000000000, 3.073328992872295400E-016 ) ) ;
#65 = DIRECTION ( 'NONE',  ( 0.0000000000000000000, 1.000000000000000000, 3.073328992872296400E-016 ) ) ;
#66 = DIRECTION ( 'NONE',  ( 0.0000000000000000000, 3.061515884555943100E-016, -1.000000000000000000 ) ) ;
#67 = CARTESIAN_POINT ( 'NONE',  ( 0.0000000000000000000, 1.836909530733565100E-016, -1.000000000000000000 ) ) ;
#68 = FACE_OUTER_BOUND ( 'NONE', #37, .T. ) ;
#69 = AXIS2_PLACEMENT_3D ( 'NONE', #67, #66, #65 ) ;
#70 = FACE_OUTER_BOUND ( 'NONE', #31, .T. ) ;
#71 = DIRECTION ( 'NONE',  ( 0.0000000000000000000, 3.061515884555943100E-016, -1.000000000000000000 ) ) ;
#72 = VECTOR ( 'NONE', #71, 1000.000000000000000 ) ;
#73 = PLANE ( 'NONE',  #104 ) ;
#74 = LINE ( 'NONE', #109, #108 ) ;
#75 = SPHERICAL_SURFACE ( 'NONE', #120, 70.13299999999999600 ) ;
#76 = DIRECTION ( 'NONE',  ( 0.0000000000000000000, 1.000000000000000000, 3.073328992872296400E-016 ) ) ;
#77 = DIRECTION ( 'NONE',  ( 0.0000000000000000000, 3.061515884555943100E-016, -1.000000000000000000 ) ) ;
#78 = AXIS2_PLACEMENT_3D ( 'NONE', #110, #77, #76 ) ;
#79 = CIRCLE ( 'NONE', #78, 12.69999999999999900 ) ;
#80 = FACE_OUTER_BOUND ( 'NONE', #44, .T. ) ;
#81 = DIRECTION ( 'NONE',  ( -1.224606353822377500E-016, 1.000000000000000000, 0.0000000000000000000 ) ) ;
#82 = DIRECTION ( 'NONE',  ( 1.000000000000000000, 1.224606353822377300E-016, 3.749151804555343600E-032 ) ) ;
#83 = CARTESIAN_POINT ( 'NONE',  ( 0.0000000000000000000, -8.833453012026954700E-015, 71.13299999999999600 ) ) ;
#84 =( NAMED_UNIT ( * ) SI_UNIT ( $, .STERADIAN. ) SOLID_ANGLE_UNIT ( ) );
#85 =( NAMED_UNIT ( * ) PLANE_ANGLE_UNIT ( ) SI_UNIT ( $, .RADIAN. ) );
#86 =( LENGTH_UNIT ( ) NAMED_UNIT ( * ) SI_UNIT ( .MILLI., .METRE. ) );
#87 = DIRECTION ( 'NONE',  ( 0.0000000000000000000, 1.000000000000000000, 3.073328992872295400E-016 ) ) ;
#88 = DIRECTION ( 'NONE',  ( 0.0000000000000000000, 3.061515884555943100E-016, -1.000000000000000000 ) ) ;
#89 = CARTESIAN_POINT ( 'NONE',  ( 0.0000000000000000000, -7.835861426917216800E-016, 2.159471099413801100 ) ) ;
#90 = CARTESIAN_POINT ( 'NONE',  ( 1.555250069354419500E-015, -12.70000000000000300, 2.159471099413797100 ) ) ;
#91 = DIRECTION ( 'NONE',  ( 0.0000000000000000000, 1.000000000000000000, 3.957562861367532200E-016 ) ) ;
#92 = DIRECTION ( 'NONE',  ( 1.000000000000000000, 0.0000000000000000000, 0.0000000000000000000 ) ) ;
#93 = AXIS2_PLACEMENT_3D ( 'NONE', #98, #92, #91 ) ;
#94 = AXIS2_PLACEMENT_3D ( 'NONE', #83, #82, #81 ) ;
#95 = CIRCLE ( 'NONE', #94, 70.13299999999999600 ) ;
#96 = CARTESIAN_POINT ( 'NONE',  ( 0.0000000000000000000, 1.693214221176048300E-014, 1.000000000000000900 ) ) ;
#97 = CARTESIAN_POINT ( 'NONE',  ( 0.0000000000000000000, 12.70000000000000300, 2.159471099413805100 ) ) ;
#98 = CARTESIAN_POINT ( 'NONE',  ( 0.0000000000000000000, -8.833453012026954700E-015, 71.13299999999999600 ) ) ;
#99 = SPHERICAL_SURFACE ( 'NONE', #93, 70.13299999999999600 ) ;
#100 = CYLINDRICAL_SURFACE ( 'NONE', #69, 12.69999999999999900 ) ;
#101 = DIRECTION ( 'NONE',  ( 0.0000000000000000000, 1.000000000000000000, 3.061515884555943100E-016 ) ) ;
#102 = DIRECTION ( 'NONE',  ( 0.0000000000000000000, 3.061515884555943100E-016, -1.000000000000000000 ) ) ;
#103 = CARTESIAN_POINT ( 'NONE',  ( 0.0000000000000000000, 1.836909530733571300E-016, -1.000000000000002000 ) ) ;
#104 = AXIS2_PLACEMENT_3D ( 'NONE', #103, #102, #101 ) ;
#105 = CIRCLE ( 'NONE', #106, 12.70000000000000300 ) ;
#106 = AXIS2_PLACEMENT_3D ( 'NONE', #112, #111, #64 ) ;
#107 = DIRECTION ( 'NONE',  ( 0.0000000000000000000, 3.061515884555943100E-016, -1.000000000000000000 ) ) ;
#108 = VECTOR ( 'NONE', #107, 1000.000000000000000 ) ;
#109 = CARTESIAN_POINT ( 'NONE',  ( 0.0000000000000000000, 12.69999999999999900, -0.9999999999999961100 ) ) ;
#110 = CARTESIAN_POINT ( 'NONE',  ( 0.0000000000000000000, 1.836909530733577000E-016, -1.000000000000004000 ) ) ;
#111 = DIRECTION ( 'NONE',  ( 0.0000000000000000000, 3.061515884555943100E-016, -1.000000000000000000 ) ) ;
#112 = CARTESIAN_POINT ( 'NONE',  ( 0.0000000000000000000, -7.835861426917216800E-016, 2.159471099413801100 ) ) ;
#113 = AXIS2_PLACEMENT_3D ( 'NONE', #89, #88, #87 ) ;
#114 = CIRCLE ( 'NONE', #113, 12.70000000000000300 ) ;
#115 = CARTESIAN_POINT ( 'NONE',  ( 1.555250069354419100E-015, -12.69999999999999900, -1.000000000000004000 ) ) ;
#116 = LINE ( 'NONE', #115, #72 ) ;
#117 = DIRECTION ( 'NONE',  ( 0.0000000000000000000, 1.000000000000000000, 3.957562861367532200E-016 ) ) ;
#118 = DIRECTION ( 'NONE',  ( 1.000000000000000000, 0.0000000000000000000, 0.0000000000000000000 ) ) ;
#119 = CARTESIAN_POINT ( 'NONE',  ( 0.0000000000000000000, -8.833453012026954700E-015, 71.13299999999999600 ) ) ;
#120 = AXIS2_PLACEMENT_3D ( 'NONE', #119, #118, #117 ) ;
#121 = CC_DESIGN_PERSON_AND_ORGANIZATION_ASSIGNMENT ( #123, #122, ( #196 ) ) ;
#122 = PERSON_AND_ORGANIZATION_ROLE ( 'creator' ) ;
#123 = PERSON_AND_ORGANIZATION ( #168, #151 ) ;
#124 = CC_DESIGN_APPROVAL ( #175, ( #196 ) ) ;
#125 = APPROVAL_DATE_TIME ( #169, #175 ) ;
#126 = CC_DESIGN_DATE_AND_TIME_ASSIGNMENT ( #128, #127, ( #191 ) ) ;
#127 = DATE_TIME_ROLE ( 'classification_date' ) ;
#128 = DATE_AND_TIME ( #129, #130 ) ;
#129 = CALENDAR_DATE ( 2009, 14, 9 ) ;
#130 = LOCAL_TIME ( 15, 41, 18.00000000000000000, #131 ) ;
#131 = COORDINATED_UNIVERSAL_TIME_OFFSET ( 5, 0, .BEHIND. ) ;
#132 = COORDINATED_UNIVERSAL_TIME_OFFSET ( 5, 0, .BEHIND. ) ;
#133 = CC_DESIGN_PERSON_AND_ORGANIZATION_ASSIGNMENT ( #135, #134, ( #147 ) ) ;
#134 = PERSON_AND_ORGANIZATION_ROLE ( 'creator' ) ;
#135 = PERSON_AND_ORGANIZATION ( #168, #151 ) ;
#136 = CC_DESIGN_APPROVAL ( #144, ( #147 ) ) ;
#137 = CC_DESIGN_PERSON_AND_ORGANIZATION_ASSIGNMENT ( #164, #138, ( #185 ) ) ;
#138 = PERSON_AND_ORGANIZATION_ROLE ( 'design_owner' ) ;
#139 = DIRECTION ( 'NONE',  ( 1.000000000000000000, 0.0000000000000000000, 0.0000000000000000000 ) ) ;
#140 = MECHANICAL_CONTEXT ( 'NONE', #142, 'mechanical' ) ;
#141 = APPLICATION_PROTOCOL_DEFINITION ( 'international standard', 'config_control_design', 1994, #142 ) ;
#142 = APPLICATION_CONTEXT ( 'configuration controlled 3d designs of mechanical parts and assemblies' ) ;
#143 = SHAPE_DEFINITION_REPRESENTATION ( #165, #25 ) ;
#144 = APPROVAL ( #145, 'UNSPECIFIED' ) ;
#145 = APPROVAL_STATUS ( 'not_yet_approved' ) ;
#146 = PERSON_AND_ORGANIZATION ( #168, #151 ) ;
#147 = PRODUCT_DEFINITION ( 'UNKNOWN', '', #196, #148 ) ;
#148 = DESIGN_CONTEXT ( 'detailed design', #150, 'design' ) ;
#149 = APPLICATION_PROTOCOL_DEFINITION ( 'international standard', 'config_control_design', 1994, #150 ) ;
#150 = APPLICATION_CONTEXT ( 'configuration controlled 3d designs of mechanical parts and assemblies' ) ;
#151 = ORGANIZATION ( 'UNSPECIFIED', 'UNSPECIFIED', '' ) ;
#152 = CC_DESIGN_SECURITY_CLASSIFICATION ( #191, ( #196 ) ) ;
#153 = CC_DESIGN_APPROVAL ( #161, ( #191 ) ) ;
#154 = APPROVAL_DATE_TIME ( #155, #161 ) ;
#155 = DATE_AND_TIME ( #156, #157 ) ;
#156 = CALENDAR_DATE ( 2009, 14, 9 ) ;
#157 = LOCAL_TIME ( 15, 41, 18.00000000000000000, #158 ) ;
#158 = COORDINATED_UNIVERSAL_TIME_OFFSET ( 5, 0, .BEHIND. ) ;
#159 = APPROVAL_PERSON_ORGANIZATION ( #163, #161, #160 ) ;
#160 = APPROVAL_ROLE ( '' ) ;
#161 = APPROVAL ( #162, 'UNSPECIFIED' ) ;
#162 = APPROVAL_STATUS ( 'not_yet_approved' ) ;
#163 = PERSON_AND_ORGANIZATION ( #168, #151 ) ;
#164 = PERSON_AND_ORGANIZATION ( #168, #151 ) ;
#165 = PRODUCT_DEFINITION_SHAPE ( 'NONE', 'NONE',  #147 ) ;
#166 = PRODUCT_RELATED_PRODUCT_CATEGORY ( 'detail', '', ( #185 ) ) ;
#167 = CARTESIAN_POINT ( 'NONE',  ( 0.0000000000000000000, 0.0000000000000000000, 0.0000000000000000000 ) ) ;
#168 = PERSON ( 'UNSPECIFIED', 'UNSPECIFIED', 'UNSPECIFIED', ('UNSPECIFIED'), ('UNSPECIFIED'), ('UNSPECIFIED') ) ;
#169 = DATE_AND_TIME ( #170, #171 ) ;
#170 = CALENDAR_DATE ( 2009, 14, 9 ) ;
#171 = LOCAL_TIME ( 15, 41, 18.00000000000000000, #172 ) ;
#172 = COORDINATED_UNIVERSAL_TIME_OFFSET ( 5, 0, .BEHIND. ) ;
#173 = APPROVAL_PERSON_ORGANIZATION ( #177, #175, #174 ) ;
#174 = APPROVAL_ROLE ( '' ) ;
#175 = APPROVAL ( #176, 'UNSPECIFIED' ) ;
#176 = APPROVAL_STATUS ( 'not_yet_approved' ) ;
#177 = PERSON_AND_ORGANIZATION ( #168, #151 ) ;
#178 = APPROVAL_DATE_TIME ( #179, #144 ) ;
#179 = DATE_AND_TIME ( #180, #181 ) ;
#180 = CALENDAR_DATE ( 2009, 14, 9 ) ;
#181 = LOCAL_TIME ( 15, 41, 18.00000000000000000, #182 ) ;
#182 = COORDINATED_UNIVERSAL_TIME_OFFSET ( 5, 0, .BEHIND. ) ;
#183 = APPROVAL_PERSON_ORGANIZATION ( #146, #144, #184 ) ;
#184 = APPROVAL_ROLE ( '' ) ;
#185 = PRODUCT ( '20197-E0W', '20197-E0W', '', ( #140 ) ) ;
#186 = DIRECTION ( 'NONE',  ( 0.0000000000000000000, 0.0000000000000000000, 1.000000000000000000 ) ) ;
#187 = AXIS2_PLACEMENT_3D ( 'NONE', #167, #186, #139 ) ;
#188 = CC_DESIGN_PERSON_AND_ORGANIZATION_ASSIGNMENT ( #190, #189, ( #191 ) ) ;
#189 = PERSON_AND_ORGANIZATION_ROLE ( 'classification_officer' ) ;
#190 = PERSON_AND_ORGANIZATION ( #168, #151 ) ;
#191 = SECURITY_CLASSIFICATION ( '', '', #192 ) ;
#192 = SECURITY_CLASSIFICATION_LEVEL ( 'unclassified' ) ;
#193 = CC_DESIGN_PERSON_AND_ORGANIZATION_ASSIGNMENT ( #195, #194, ( #196 ) ) ;
#194 = PERSON_AND_ORGANIZATION_ROLE ( 'design_supplier' ) ;
#195 = PERSON_AND_ORGANIZATION ( #168, #151 ) ;
#196 = PRODUCT_DEFINITION_FORMATION_WITH_SPECIFIED_SOURCE ( 'ANY', '', #185, .NOT_KNOWN. ) ;
#197 = CC_DESIGN_DATE_AND_TIME_ASSIGNMENT ( #199, #198, ( #147 ) ) ;
#198 = DATE_TIME_ROLE ( 'creation_date' ) ;
#199 = DATE_AND_TIME ( #200, #201 ) ;
#200 = CALENDAR_DATE ( 2009, 14, 9 ) ;
#201 = LOCAL_TIME ( 15, 41, 18.00000000000000000, #132 ) ;
ENDSEC;
END-ISO-10303-21;
