ISO-10303-21;
HEADER;
FILE_DESCRIPTION (( 'STEP AP214' ),
    '1' );
FILE_NAME ('3385-E0W.STEP',
    '2009-12-21T16:58:44',
    ( ' ' ),
    ( ' ' ),
    'SwSTEP 2.0',
    'SolidWorks 2009',
    '' );
FILE_SCHEMA (( 'AUTOMOTIVE_DESIGN' ));
ENDSEC;

DATA;
#1 = ORIENTED_EDGE ( 'NONE', *, *, #20, .T. ) ;
#2 = ORIENTED_EDGE ( 'NONE', *, *, #5, .F. ) ;
#3 = VERTEX_POINT ( 'NONE', #75 ) ;
#4 = VERTEX_POINT ( 'NONE', #108 ) ;
#5 = EDGE_CURVE ( 'NONE', #3, #62, #129, .T. ) ;
#6 = VERTEX_POINT ( 'NONE', #113 ) ;
#7 = ORIENTED_EDGE ( 'NONE', *, *, #9, .T. ) ;
#8 = EDGE_CURVE ( 'NONE', #6, #23, #125, .T. ) ;
#9 = EDGE_CURVE ( 'NONE', #23, #4, #112, .T. ) ;
#10 = EDGE_CURVE ( 'NONE', #56, #6, #121, .T. ) ;
#11 = MANIFOLD_SOLID_BREP ( 'NONE', #50 ) ;
#12 = ORIENTED_EDGE ( 'NONE', *, *, #31, .T. ) ;
#13 = ORIENTED_EDGE ( 'NONE', *, *, #8, .T. ) ;
#14 = EDGE_CURVE ( 'NONE', #19, #17, #98, .T. ) ;
#15 = ADVANCED_FACE ( 'NONE', ( #105 ), #65, .T. ) ;
#16 = ORIENTED_EDGE ( 'NONE', *, *, #14, .F. ) ;
#17 = VERTEX_POINT ( 'NONE', #203 ) ;
#18 = ORIENTED_EDGE ( 'NONE', *, *, #31, .F. ) ;
#19 = VERTEX_POINT ( 'NONE', #244 ) ;
#20 = EDGE_CURVE ( 'NONE', #3, #56, #130, .T. ) ;
#21 = EDGE_LOOP ( 'NONE', ( #57, #59, #74, #117 ) ) ;
#22 = EDGE_LOOP ( 'NONE', ( #24, #13, #18, #60, #2, #1 ) ) ;
#23 = VERTEX_POINT ( 'NONE', #271 ) ;
#24 = ORIENTED_EDGE ( 'NONE', *, *, #10, .T. ) ;
#25 = EDGE_CURVE ( 'NONE', #34, #26, #269, .T. ) ;
#26 = VERTEX_POINT ( 'NONE', #179 ) ;
#27 = ORIENTED_EDGE ( 'NONE', *, *, #9, .F. ) ;
#28 = ORIENTED_EDGE ( 'NONE', *, *, #44, .T. ) ;
#29 = ORIENTED_EDGE ( 'NONE', *, *, #8, .F. ) ;
#30 = EDGE_LOOP ( 'NONE', ( #29, #42, #45, #47, #46, #27 ) ) ;
#31 = EDGE_CURVE ( 'NONE', #19, #23, #259, .T. ) ;
#32 = EDGE_LOOP ( 'NONE', ( #7, #38, #16, #12 ) ) ;
#33 = ADVANCED_FACE ( 'NONE', ( #202 ), #136, .T. ) ;
#34 = VERTEX_POINT ( 'NONE', #214 ) ;
#35 = EDGE_LOOP ( 'NONE', ( #36, #37, #52, #53 ) ) ;
#36 = ORIENTED_EDGE ( 'NONE', *, *, #25, .F. ) ;
#37 = ORIENTED_EDGE ( 'NONE', *, *, #58, .T. ) ;
#38 = ORIENTED_EDGE ( 'NONE', *, *, #39, .T. ) ;
#39 = EDGE_CURVE ( 'NONE', #4, #17, #133, .T. ) ;
#40 = EDGE_LOOP ( 'NONE', ( #41, #28, #48, #49 ) ) ;
#41 = ORIENTED_EDGE ( 'NONE', *, *, #39, .F. ) ;
#42 = ORIENTED_EDGE ( 'NONE', *, *, #99, .T. ) ;
#43 = ADVANCED_FACE ( 'NONE', ( #253 ), #174, .T. ) ;
#44 = EDGE_CURVE ( 'NONE', #4, #62, #173, .T. ) ;
#45 = ORIENTED_EDGE ( 'NONE', *, *, #54, .T. ) ;
#46 = ORIENTED_EDGE ( 'NONE', *, *, #44, .F. ) ;
#47 = ORIENTED_EDGE ( 'NONE', *, *, #5, .T. ) ;
#48 = ORIENTED_EDGE ( 'NONE', *, *, #61, .T. ) ;
#49 = ORIENTED_EDGE ( 'NONE', *, *, #14, .T. ) ;
#50 = CLOSED_SHELL ( 'NONE', ( #15, #55, #33, #67, #51, #43 ) ) ;
#51 = ADVANCED_FACE ( 'NONE', ( #168 ), #148, .T. ) ;
#52 = ORIENTED_EDGE ( 'NONE', *, *, #20, .F. ) ;
#53 = ORIENTED_EDGE ( 'NONE', *, *, #54, .F. ) ;
#54 = EDGE_CURVE ( 'NONE', #26, #3, #147, .T. ) ;
#55 = ADVANCED_FACE ( 'NONE', ( #142 ), #181, .T. ) ;
#56 = VERTEX_POINT ( 'NONE', #226 ) ;
#57 = ORIENTED_EDGE ( 'NONE', *, *, #58, .F. ) ;
#58 = EDGE_CURVE ( 'NONE', #34, #56, #220, .T. ) ;
#59 = ORIENTED_EDGE ( 'NONE', *, *, #25, .T. ) ;
#60 = ORIENTED_EDGE ( 'NONE', *, *, #61, .F. ) ;
#61 = EDGE_CURVE ( 'NONE', #62, #19, #215, .T. ) ;
#62 = VERTEX_POINT ( 'NONE', #238 ) ;
#63 = UNCERTAINTY_MEASURE_WITH_UNIT (LENGTH_MEASURE( 1.000000000000000100E-005 ), #109, 'distance_accuracy_value', 'NONE');
#64 =( NAMED_UNIT ( * ) SI_UNIT ( $, .STERADIAN. ) SOLID_ANGLE_UNIT ( ) );
#65 = SPHERICAL_SURFACE ( 'NONE', #93, 514.3500000000000200 ) ;
#66 =( GEOMETRIC_REPRESENTATION_CONTEXT ( 3 ) GLOBAL_UNCERTAINTY_ASSIGNED_CONTEXT ( ( #106 ) ) GLOBAL_UNIT_ASSIGNED_CONTEXT ( ( #114, #77, #76 ) ) REPRESENTATION_CONTEXT ( 'NONE', 'WORKASPACE' ) );
#67 = ADVANCED_FACE ( 'NONE', ( #237 ), #321, .T. ) ;
#68 = MECHANICAL_DESIGN_GEOMETRIC_PRESENTATION_REPRESENTATION (  '', ( #70 ), #118 ) ;
#69 = PRESENTATION_LAYER_ASSIGNMENT (  '', '', ( #70 ) ) ;
#70 = STYLED_ITEM ( 'NONE', ( #71 ), #11 ) ;
#71 = PRESENTATION_STYLE_ASSIGNMENT (( #86 ) ) ;
#72 = DIRECTION ( 'NONE',  ( 1.000000000000000000, 0.0000000000000000000, 0.0000000000000000000 ) ) ;
#73 = DIRECTION ( 'NONE',  ( -0.0000000000000000000, -0.0000000000000000000, 1.000000000000000000 ) ) ;
#74 = ORIENTED_EDGE ( 'NONE', *, *, #99, .F. ) ;
#75 = CARTESIAN_POINT ( 'NONE',  ( 25.40000000000000200, -6.274098110942214900E-015, -1.502456682594280700 ) ) ;
#76 =( NAMED_UNIT ( * ) SI_UNIT ( $, .STERADIAN. ) SOLID_ANGLE_UNIT ( ) );
#77 =( NAMED_UNIT ( * ) PLANE_ANGLE_UNIT ( ) SI_UNIT ( $, .RADIAN. ) );
#78 = PRESENTATION_LAYER_ASSIGNMENT (  '', '', ( #79 ) ) ;
#79 = STYLED_ITEM ( 'NONE', ( #80 ), #15 ) ;
#80 = PRESENTATION_STYLE_ASSIGNMENT (( #81 ) ) ;
#81 = SURFACE_STYLE_USAGE ( .BOTH. , #82 ) ;
#82 = SURFACE_SIDE_STYLE ('',( #83 ) ) ;
#83 = SURFACE_STYLE_FILL_AREA ( #84 ) ;
#84 = FILL_AREA_STYLE ('',( #100 ) ) ;
#85 = COLOUR_RGB ( '',0.9568627450980391500, 0.9490196078431372100, 0.9607843137254902200 ) ;
#86 = SURFACE_STYLE_USAGE ( .BOTH. , #87 ) ;
#87 = SURFACE_SIDE_STYLE ('',( #88 ) ) ;
#88 = SURFACE_STYLE_FILL_AREA ( #94 ) ;
#89 =( LENGTH_UNIT ( ) NAMED_UNIT ( * ) SI_UNIT ( .MILLI., .METRE. ) );
#90 = DIRECTION ( 'NONE',  ( 0.0000000000000000000, 1.000000000000000000, 0.0000000000000000000 ) ) ;
#91 = DIRECTION ( 'NONE',  ( -1.000000000000000000, 0.0000000000000000000, 0.0000000000000000000 ) ) ;
#92 = CARTESIAN_POINT ( 'NONE',  ( 0.0000000000000000000, 6.258006375982931400E-014, -512.2200000000000300 ) ) ;
#93 = AXIS2_PLACEMENT_3D ( 'NONE', #92, #91, #90 ) ;
#94 = FILL_AREA_STYLE ('',( #95 ) ) ;
#95 = FILL_AREA_STYLE_COLOUR ( '', #122 ) ;
#96 = DIRECTION ( 'NONE',  ( 1.000000000000000000, 0.0000000000000000000, 0.0000000000000000000 ) ) ;
#97 = DIRECTION ( 'NONE',  ( -0.0000000000000000000, -0.0000000000000000000, 1.000000000000000000 ) ) ;
#98 = CIRCLE ( 'NONE', #104, 514.3500000000000200 ) ;
#99 = EDGE_CURVE ( 'NONE', #6, #26, #313, .T. ) ;
#100 = FILL_AREA_STYLE_COLOUR ( '', #85 ) ;
#101 = DIRECTION ( 'NONE',  ( 0.0000000000000000000, 0.0000000000000000000, -1.000000000000000000 ) ) ;
#102 = DIRECTION ( 'NONE',  ( 1.000000000000000000, 0.0000000000000000000, 0.0000000000000000000 ) ) ;
#103 = CARTESIAN_POINT ( 'NONE',  ( 0.0000000000000000000, 6.258006375982931400E-014, -512.2200000000000300 ) ) ;
#104 = AXIS2_PLACEMENT_3D ( 'NONE', #103, #102, #101 ) ;
#105 = FACE_OUTER_BOUND ( 'NONE', #32, .T. ) ;
#106 = UNCERTAINTY_MEASURE_WITH_UNIT (LENGTH_MEASURE( 1.000000000000000100E-005 ), #114, 'distance_accuracy_value', 'NONE');
#107 =( NAMED_UNIT ( * ) PLANE_ANGLE_UNIT ( ) SI_UNIT ( $, .RADIAN. ) );
#108 = CARTESIAN_POINT ( 'NONE',  ( -3.110500138708816100E-015, -25.39999999999975700, 1.502456682594299800 ) ) ;
#109 =( LENGTH_UNIT ( ) NAMED_UNIT ( * ) SI_UNIT ( .MILLI., .METRE. ) );
#110 = CARTESIAN_POINT ( 'NONE',  ( 0.0000000000000000000, -6.274098110942214900E-015, 1.502456682594299800 ) ) ;
#111 = AXIS2_PLACEMENT_3D ( 'NONE', #110, #73, #72 ) ;
#112 = CIRCLE ( 'NONE', #111, 25.40000000000000200 ) ;
#113 = CARTESIAN_POINT ( 'NONE',  ( -25.40000000000000200, -3.163597972233376400E-015, -1.502456682594280700 ) ) ;
#114 =( LENGTH_UNIT ( ) NAMED_UNIT ( * ) SI_UNIT ( .MILLI., .METRE. ) );
#115 = MECHANICAL_DESIGN_GEOMETRIC_PRESENTATION_REPRESENTATION (  '', ( #79 ), #66 ) ;
#116 = DIRECTION ( 'NONE',  ( -0.0000000000000000000, -0.0000000000000000000, 1.000000000000000000 ) ) ;
#117 = ORIENTED_EDGE ( 'NONE', *, *, #10, .F. ) ;
#118 =( GEOMETRIC_REPRESENTATION_CONTEXT ( 3 ) GLOBAL_UNCERTAINTY_ASSIGNED_CONTEXT ( ( #63 ) ) GLOBAL_UNIT_ASSIGNED_CONTEXT ( ( #109, #107, #64 ) ) REPRESENTATION_CONTEXT ( 'NONE', 'WORKASPACE' ) );
#119 = CARTESIAN_POINT ( 'NONE',  ( 0.0000000000000000000, -6.274098110942214900E-015, -1.502456682594280700 ) ) ;
#120 = AXIS2_PLACEMENT_3D ( 'NONE', #119, #97, #96 ) ;
#121 = CIRCLE ( 'NONE', #120, 25.40000000000000200 ) ;
#122 = COLOUR_RGB ( '',0.7960784313725489700, 0.8235294117647058400, 0.9372549019607843100 ) ;
#123 = VECTOR ( 'NONE', #116, 1000.000000000000000 ) ;
#124 = CARTESIAN_POINT ( 'NONE',  ( -25.40000000000000200, -3.163597972233376400E-015, 6.491000388932064000 ) ) ;
#125 = LINE ( 'NONE', #124, #123 ) ;
#126 = DIRECTION ( 'NONE',  ( -0.0000000000000000000, -0.0000000000000000000, 1.000000000000000000 ) ) ;
#127 = VECTOR ( 'NONE', #126, 1000.000000000000000 ) ;
#128 = CARTESIAN_POINT ( 'NONE',  ( 25.40000000000000200, -6.274098110942214900E-015, 6.491000388932064000 ) ) ;
#129 = LINE ( 'NONE', #128, #127 ) ;
#130 = CIRCLE ( 'NONE', #243, 25.40000000000000200 ) ;
#131 = DIRECTION ( 'NONE',  ( -1.000000000000000000, 1.224606353822377300E-016, 0.0000000000000000000 ) ) ;
#132 = AXIS2_PLACEMENT_3D ( 'NONE', #213, #131, #254 ) ;
#133 = CIRCLE ( 'NONE', #132, 514.3500000000000200 ) ;
#134 = FILL_AREA_STYLE_COLOUR ( '', #252 ) ;
#135 = CARTESIAN_POINT ( 'NONE',  ( 0.0000000000000000000, -6.287765293202213200E-014, 512.2200000000000300 ) ) ;
#136 = SPHERICAL_SURFACE ( 'NONE', #212, 514.3500000000000200 ) ;
#137 = FILL_AREA_STYLE_COLOUR ( '', #196 ) ;
#138 = DIRECTION ( 'NONE',  ( 1.000000000000000000, 0.0000000000000000000, 0.0000000000000000000 ) ) ;
#139 = DIRECTION ( 'NONE',  ( -0.0000000000000000000, -0.0000000000000000000, 1.000000000000000000 ) ) ;
#140 = CARTESIAN_POINT ( 'NONE',  ( 0.0000000000000000000, -6.274098110942214900E-015, -1.502456682594280700 ) ) ;
#141 = AXIS2_PLACEMENT_3D ( 'NONE', #140, #139, #138 ) ;
#142 = FACE_OUTER_BOUND ( 'NONE', #22, .T. ) ;
#143 = DIRECTION ( 'NONE',  ( 1.000000000000000000, 0.0000000000000000000, 0.0000000000000000000 ) ) ;
#144 = DIRECTION ( 'NONE',  ( -0.0000000000000000000, -0.0000000000000000000, 1.000000000000000000 ) ) ;
#145 = CARTESIAN_POINT ( 'NONE',  ( 0.0000000000000000000, -6.274098110942214900E-015, 6.491000388932064000 ) ) ;
#146 = AXIS2_PLACEMENT_3D ( 'NONE', #145, #144, #143 ) ;
#147 = CIRCLE ( 'NONE', #141, 25.40000000000000200 ) ;
#148 = CYLINDRICAL_SURFACE ( 'NONE', #146, 25.40000000000000200 ) ;
#149 =( GEOMETRIC_REPRESENTATION_CONTEXT ( 3 ) GLOBAL_UNCERTAINTY_ASSIGNED_CONTEXT ( ( #255 ) ) GLOBAL_UNIT_ASSIGNED_CONTEXT ( ( #258, #257, #256 ) ) REPRESENTATION_CONTEXT ( 'NONE', 'WORKASPACE' ) );
#150 = CARTESIAN_POINT ( 'NONE',  ( 0.0000000000000000000, -6.287765293202213200E-014, 512.2200000000000300 ) ) ;
#151 = MECHANICAL_DESIGN_GEOMETRIC_PRESENTATION_REPRESENTATION (  '', ( #153 ), #261 ) ;
#152 = PRESENTATION_LAYER_ASSIGNMENT (  '', '', ( #153 ) ) ;
#153 = STYLED_ITEM ( 'NONE', ( #206 ), #33 ) ;
#154 = MECHANICAL_DESIGN_GEOMETRIC_PRESENTATION_REPRESENTATION (  '', ( #156 ), #149 ) ;
#155 = PRESENTATION_LAYER_ASSIGNMENT (  '', '', ( #156 ) ) ;
#156 = STYLED_ITEM ( 'NONE', ( #157 ), #51 ) ;
#157 = PRESENTATION_STYLE_ASSIGNMENT (( #158 ) ) ;
#158 = SURFACE_STYLE_USAGE ( .BOTH. , #159 ) ;
#159 = SURFACE_SIDE_STYLE ('',( #160 ) ) ;
#160 = SURFACE_STYLE_FILL_AREA ( #161 ) ;
#161 = FILL_AREA_STYLE ('',( #162 ) ) ;
#162 = FILL_AREA_STYLE_COLOUR ( '', #163 ) ;
#163 = COLOUR_RGB ( '',0.9568627450980391500, 0.9490196078431372100, 0.9607843137254902200 ) ;
#164 = DIRECTION ( 'NONE',  ( 1.000000000000000000, 0.0000000000000000000, 0.0000000000000000000 ) ) ;
#165 = DIRECTION ( 'NONE',  ( -0.0000000000000000000, -0.0000000000000000000, 1.000000000000000000 ) ) ;
#166 = CARTESIAN_POINT ( 'NONE',  ( 0.0000000000000000000, -6.274098110942214900E-015, 1.502456682594299800 ) ) ;
#167 = AXIS2_PLACEMENT_3D ( 'NONE', #166, #165, #164 ) ;
#168 = FACE_OUTER_BOUND ( 'NONE', #30, .T. ) ;
#169 = DIRECTION ( 'NONE',  ( 0.0000000000000000000, 1.000000000000000000, 0.0000000000000000000 ) ) ;
#170 = DIRECTION ( 'NONE',  ( -1.000000000000000000, 0.0000000000000000000, 0.0000000000000000000 ) ) ;
#171 = CARTESIAN_POINT ( 'NONE',  ( 0.0000000000000000000, 6.258006375982931400E-014, -512.2200000000000300 ) ) ;
#172 = AXIS2_PLACEMENT_3D ( 'NONE', #171, #170, #169 ) ;
#173 = CIRCLE ( 'NONE', #167, 25.40000000000000200 ) ;
#174 = SPHERICAL_SURFACE ( 'NONE', #172, 514.3500000000000200 ) ;
#175 =( GEOMETRIC_REPRESENTATION_CONTEXT ( 3 ) GLOBAL_UNCERTAINTY_ASSIGNED_CONTEXT ( ( #176 ) ) GLOBAL_UNIT_ASSIGNED_CONTEXT ( ( #198, #197, #177 ) ) REPRESENTATION_CONTEXT ( 'NONE', 'WORKASPACE' ) );
#176 = UNCERTAINTY_MEASURE_WITH_UNIT (LENGTH_MEASURE( 1.000000000000000100E-005 ), #198, 'distance_accuracy_value', 'NONE');
#177 =( NAMED_UNIT ( * ) SI_UNIT ( $, .STERADIAN. ) SOLID_ANGLE_UNIT ( ) );
#178 = CARTESIAN_POINT ( 'NONE',  ( 0.0000000000000000000, -6.274098110942214900E-015, -1.502456682594280700 ) ) ;
#179 = CARTESIAN_POINT ( 'NONE',  ( -3.110500138708808600E-015, -25.39999999999981700, -1.502456682594290200 ) ) ;
#180 =( NAMED_UNIT ( * ) PLANE_ANGLE_UNIT ( ) SI_UNIT ( $, .RADIAN. ) );
#181 = CYLINDRICAL_SURFACE ( 'NONE', #225, 25.40000000000000200 ) ;
#182 =( GEOMETRIC_REPRESENTATION_CONTEXT ( 3 ) GLOBAL_UNCERTAINTY_ASSIGNED_CONTEXT ( ( #183 ) ) GLOBAL_UNIT_ASSIGNED_CONTEXT ( ( #187, #186, #185 ) ) REPRESENTATION_CONTEXT ( 'NONE', 'WORKASPACE' ) );
#183 = UNCERTAINTY_MEASURE_WITH_UNIT (LENGTH_MEASURE( 1.000000000000000100E-005 ), #187, 'distance_accuracy_value', 'NONE');
#184 = DIRECTION ( 'NONE',  ( 1.000000000000000000, 0.0000000000000000000, 0.0000000000000000000 ) ) ;
#185 =( NAMED_UNIT ( * ) SI_UNIT ( $, .STERADIAN. ) SOLID_ANGLE_UNIT ( ) );
#186 =( NAMED_UNIT ( * ) PLANE_ANGLE_UNIT ( ) SI_UNIT ( $, .RADIAN. ) );
#187 =( LENGTH_UNIT ( ) NAMED_UNIT ( * ) SI_UNIT ( .MILLI., .METRE. ) );
#188 = MECHANICAL_DESIGN_GEOMETRIC_PRESENTATION_REPRESENTATION (  '', ( #190 ), #182 ) ;
#189 = PRESENTATION_LAYER_ASSIGNMENT (  '', '', ( #190 ) ) ;
#190 = STYLED_ITEM ( 'NONE', ( #191 ), #55 ) ;
#191 = PRESENTATION_STYLE_ASSIGNMENT (( #192 ) ) ;
#192 = SURFACE_STYLE_USAGE ( .BOTH. , #193 ) ;
#193 = SURFACE_SIDE_STYLE ('',( #194 ) ) ;
#194 = SURFACE_STYLE_FILL_AREA ( #195 ) ;
#195 = FILL_AREA_STYLE ('',( #137 ) ) ;
#196 = COLOUR_RGB ( '',0.9568627450980391500, 0.9490196078431372100, 0.9607843137254902200 ) ;
#197 =( NAMED_UNIT ( * ) PLANE_ANGLE_UNIT ( ) SI_UNIT ( $, .RADIAN. ) );
#198 =( LENGTH_UNIT ( ) NAMED_UNIT ( * ) SI_UNIT ( .MILLI., .METRE. ) );
#199 = MECHANICAL_DESIGN_GEOMETRIC_PRESENTATION_REPRESENTATION (  '', ( #246 ), #175 ) ;
#200 = CARTESIAN_POINT ( 'NONE',  ( 0.0000000000000000000, -6.274098110942214900E-015, 1.502456682594299800 ) ) ;
#201 = AXIS2_PLACEMENT_3D ( 'NONE', #200, #265, #264 ) ;
#202 = FACE_OUTER_BOUND ( 'NONE', #21, .T. ) ;
#203 = CARTESIAN_POINT ( 'NONE',  ( 0.0000000000000000000, 9.407387766425631100E-014, 2.129999999999965300 ) ) ;
#204 = DIRECTION ( 'NONE',  ( -1.000000000000000000, 1.224606353822377300E-016, 0.0000000000000000000 ) ) ;
#205 =( LENGTH_UNIT ( ) NAMED_UNIT ( * ) SI_UNIT ( .MILLI., .METRE. ) );
#206 = PRESENTATION_STYLE_ASSIGNMENT (( #207 ) ) ;
#207 = SURFACE_STYLE_USAGE ( .BOTH. , #208 ) ;
#208 = SURFACE_SIDE_STYLE ('',( #209 ) ) ;
#209 = SURFACE_STYLE_FILL_AREA ( #210 ) ;
#210 = FILL_AREA_STYLE ('',( #262 ) ) ;
#211 = DIRECTION ( 'NONE',  ( 0.0000000000000000000, 1.000000000000000000, 0.0000000000000000000 ) ) ;
#212 = AXIS2_PLACEMENT_3D ( 'NONE', #135, #260, #211 ) ;
#213 = CARTESIAN_POINT ( 'NONE',  ( 0.0000000000000000000, 6.258006375982931400E-014, -512.2200000000000300 ) ) ;
#214 = CARTESIAN_POINT ( 'NONE',  ( 0.0000000000000000000, -3.138383902759514700E-014, -2.129999999999965300 ) ) ;
#215 = CIRCLE ( 'NONE', #241, 25.40000000000000200 ) ;
#216 = DIRECTION ( 'NONE',  ( 0.0000000000000000000, 0.0000000000000000000, -1.000000000000000000 ) ) ;
#217 = DIRECTION ( 'NONE',  ( 1.000000000000000000, 0.0000000000000000000, 0.0000000000000000000 ) ) ;
#218 = CARTESIAN_POINT ( 'NONE',  ( 0.0000000000000000000, -6.287765293202213200E-014, 512.2200000000000300 ) ) ;
#219 = AXIS2_PLACEMENT_3D ( 'NONE', #218, #217, #216 ) ;
#220 = CIRCLE ( 'NONE', #219, 514.3500000000000200 ) ;
#221 = CARTESIAN_POINT ( 'NONE',  ( 0.0000000000000000000, -6.274098110942214900E-015, 1.502456682594299800 ) ) ;
#222 = DIRECTION ( 'NONE',  ( 1.000000000000000000, 0.0000000000000000000, 0.0000000000000000000 ) ) ;
#223 = DIRECTION ( 'NONE',  ( -0.0000000000000000000, -0.0000000000000000000, 1.000000000000000000 ) ) ;
#224 = CARTESIAN_POINT ( 'NONE',  ( 0.0000000000000000000, -6.274098110942214900E-015, 6.491000388932064000 ) ) ;
#225 = AXIS2_PLACEMENT_3D ( 'NONE', #224, #223, #222 ) ;
#226 = CARTESIAN_POINT ( 'NONE',  ( 0.0000000000000000000, 25.39999999999975000, -1.502456682594290200 ) ) ;
#227 = MECHANICAL_DESIGN_GEOMETRIC_PRESENTATION_REPRESENTATION (  '', ( #229 ), #322 ) ;
#228 = PRESENTATION_LAYER_ASSIGNMENT (  '', '', ( #229 ) ) ;
#229 = STYLED_ITEM ( 'NONE', ( #230 ), #67 ) ;
#230 = PRESENTATION_STYLE_ASSIGNMENT (( #231 ) ) ;
#231 = SURFACE_STYLE_USAGE ( .BOTH. , #232 ) ;
#232 = SURFACE_SIDE_STYLE ('',( #233 ) ) ;
#233 = SURFACE_STYLE_FILL_AREA ( #234 ) ;
#234 = FILL_AREA_STYLE ('',( #235 ) ) ;
#235 = FILL_AREA_STYLE_COLOUR ( '', #236 ) ;
#236 = COLOUR_RGB ( '',0.9568627450980391500, 0.9490196078431372100, 0.9607843137254902200 ) ;
#237 = FACE_OUTER_BOUND ( 'NONE', #35, .T. ) ;
#238 = CARTESIAN_POINT ( 'NONE',  ( 25.40000000000000200, -6.274098110942214900E-015, 1.502456682594299800 ) ) ;
#239 = DIRECTION ( 'NONE',  ( 1.000000000000000000, 0.0000000000000000000, 0.0000000000000000000 ) ) ;
#240 = DIRECTION ( 'NONE',  ( -0.0000000000000000000, -0.0000000000000000000, 1.000000000000000000 ) ) ;
#241 = AXIS2_PLACEMENT_3D ( 'NONE', #221, #240, #239 ) ;
#242 = DIRECTION ( 'NONE',  ( -0.0000000000000000000, -0.0000000000000000000, 1.000000000000000000 ) ) ;
#243 = AXIS2_PLACEMENT_3D ( 'NONE', #178, #242, #184 ) ;
#244 = CARTESIAN_POINT ( 'NONE',  ( 0.0000000000000000000, 25.39999999999981000, 1.502456682594299800 ) ) ;
#245 = PRESENTATION_LAYER_ASSIGNMENT (  '', '', ( #246 ) ) ;
#246 = STYLED_ITEM ( 'NONE', ( #247 ), #43 ) ;
#247 = PRESENTATION_STYLE_ASSIGNMENT (( #248 ) ) ;
#248 = SURFACE_STYLE_USAGE ( .BOTH. , #249 ) ;
#249 = SURFACE_SIDE_STYLE ('',( #250 ) ) ;
#250 = SURFACE_STYLE_FILL_AREA ( #251 ) ;
#251 = FILL_AREA_STYLE ('',( #134 ) ) ;
#252 = COLOUR_RGB ( '',0.9568627450980391500, 0.9490196078431372100, 0.9607843137254902200 ) ;
#253 = FACE_OUTER_BOUND ( 'NONE', #40, .T. ) ;
#254 = DIRECTION ( 'NONE',  ( -1.224606353822377000E-016, -1.000000000000000000, 0.0000000000000000000 ) ) ;
#255 = UNCERTAINTY_MEASURE_WITH_UNIT (LENGTH_MEASURE( 1.000000000000000100E-005 ), #258, 'distance_accuracy_value', 'NONE');
#256 =( NAMED_UNIT ( * ) SI_UNIT ( $, .STERADIAN. ) SOLID_ANGLE_UNIT ( ) );
#257 =( NAMED_UNIT ( * ) PLANE_ANGLE_UNIT ( ) SI_UNIT ( $, .RADIAN. ) );
#258 =( LENGTH_UNIT ( ) NAMED_UNIT ( * ) SI_UNIT ( .MILLI., .METRE. ) );
#259 = CIRCLE ( 'NONE', #201, 25.40000000000000200 ) ;
#260 = DIRECTION ( 'NONE',  ( -1.000000000000000000, 0.0000000000000000000, 0.0000000000000000000 ) ) ;
#261 =( GEOMETRIC_REPRESENTATION_CONTEXT ( 3 ) GLOBAL_UNCERTAINTY_ASSIGNED_CONTEXT ( ( #266 ) ) GLOBAL_UNIT_ASSIGNED_CONTEXT ( ( #205, #180, #267 ) ) REPRESENTATION_CONTEXT ( 'NONE', 'WORKASPACE' ) );
#262 = FILL_AREA_STYLE_COLOUR ( '', #263 ) ;
#263 = COLOUR_RGB ( '',0.9568627450980391500, 0.9490196078431372100, 0.9607843137254902200 ) ;
#264 = DIRECTION ( 'NONE',  ( 1.000000000000000000, 0.0000000000000000000, 0.0000000000000000000 ) ) ;
#265 = DIRECTION ( 'NONE',  ( -0.0000000000000000000, -0.0000000000000000000, 1.000000000000000000 ) ) ;
#266 = UNCERTAINTY_MEASURE_WITH_UNIT (LENGTH_MEASURE( 1.000000000000000100E-005 ), #205, 'distance_accuracy_value', 'NONE');
#267 =( NAMED_UNIT ( * ) SI_UNIT ( $, .STERADIAN. ) SOLID_ANGLE_UNIT ( ) );
#268 = AXIS2_PLACEMENT_3D ( 'NONE', #150, #204, #270 ) ;
#269 = CIRCLE ( 'NONE', #268, 514.3500000000000200 ) ;
#270 = DIRECTION ( 'NONE',  ( -1.224606353822377000E-016, -1.000000000000000000, 0.0000000000000000000 ) ) ;
#271 = CARTESIAN_POINT ( 'NONE',  ( -25.40000000000000200, -3.163597972233376400E-015, 1.502456682594299800 ) ) ;
#272 =( GEOMETRIC_REPRESENTATION_CONTEXT ( 3 ) GLOBAL_UNCERTAINTY_ASSIGNED_CONTEXT ( ( #304 ) ) GLOBAL_UNIT_ASSIGNED_CONTEXT ( ( #279, #306, #305 ) ) REPRESENTATION_CONTEXT ( 'NONE', 'WORKASPACE' ) );
#273 = FILL_AREA_STYLE ('',( #274 ) ) ;
#274 = FILL_AREA_STYLE_COLOUR ( '', #275 ) ;
#275 = COLOUR_RGB ( '',0.7960784313725489700, 0.8235294117647058400, 0.9372549019607843100 ) ;
#276 = ADVANCED_BREP_SHAPE_REPRESENTATION ( '3385-E0W', ( #11, #317 ), #298 ) ;
#277 = AXIS2_PLACEMENT_3D ( 'NONE', #309, #308, #303 ) ;
#278 =( NAMED_UNIT ( * ) SI_UNIT ( $, .STERADIAN. ) SOLID_ANGLE_UNIT ( ) );
#279 =( LENGTH_UNIT ( ) NAMED_UNIT ( * ) SI_UNIT ( .MILLI., .METRE. ) );
#280 = MECHANICAL_DESIGN_GEOMETRIC_PRESENTATION_REPRESENTATION (  '', ( #282 ), #272 ) ;
#281 = PRESENTATION_LAYER_ASSIGNMENT (  '', '', ( #282 ) ) ;
#282 = STYLED_ITEM ( 'NONE', ( #283 ), #276 ) ;
#283 = PRESENTATION_STYLE_ASSIGNMENT (( #284 ) ) ;
#284 = SURFACE_STYLE_USAGE ( .BOTH. , #285 ) ;
#285 = SURFACE_SIDE_STYLE ('',( #286 ) ) ;
#286 = SURFACE_STYLE_FILL_AREA ( #273 ) ;
#287 = PRODUCT_DEFINITION_SHAPE ( 'NONE', 'NONE',  #290 ) ;
#288 = PRODUCT_RELATED_PRODUCT_CATEGORY ( 'part', '', ( #318 ) ) ;
#289 = PRODUCT_DEFINITION_FORMATION_WITH_SPECIFIED_SOURCE ( 'ANY', '', #318, .NOT_KNOWN. ) ;
#290 = PRODUCT_DEFINITION ( 'UNKNOWN', '', #289, #291 ) ;
#291 = PRODUCT_DEFINITION_CONTEXT ( 'detailed design', #293, 'design' ) ;
#292 = APPLICATION_PROTOCOL_DEFINITION ( 'draft international standard', 'automotive_design', 1998, #293 ) ;
#293 = APPLICATION_CONTEXT ( 'automotive_design' ) ;
#294 =( NAMED_UNIT ( * ) PLANE_ANGLE_UNIT ( ) SI_UNIT ( $, .RADIAN. ) );
#295 = UNCERTAINTY_MEASURE_WITH_UNIT (LENGTH_MEASURE( 1.000000000000000100E-005 ), #299, 'distance_accuracy_value', 'NONE');
#296 =( NAMED_UNIT ( * ) SI_UNIT ( $, .STERADIAN. ) SOLID_ANGLE_UNIT ( ) );
#297 = UNCERTAINTY_MEASURE_WITH_UNIT (LENGTH_MEASURE( 1.000000000000000100E-005 ), #89, 'distance_accuracy_value', 'NONE');
#298 =( GEOMETRIC_REPRESENTATION_CONTEXT ( 3 ) GLOBAL_UNCERTAINTY_ASSIGNED_CONTEXT ( ( #295 ) ) GLOBAL_UNIT_ASSIGNED_CONTEXT ( ( #299, #294, #296 ) ) REPRESENTATION_CONTEXT ( 'NONE', 'WORKASPACE' ) );
#299 =( LENGTH_UNIT ( ) NAMED_UNIT ( * ) SI_UNIT ( .MILLI., .METRE. ) );
#300 = CARTESIAN_POINT ( 'NONE',  ( 0.0000000000000000000, 0.0000000000000000000, 0.0000000000000000000 ) ) ;
#301 = APPLICATION_CONTEXT ( 'automotive_design' ) ;
#302 = CARTESIAN_POINT ( 'NONE',  ( 0.0000000000000000000, -6.274098110942214900E-015, -1.502456682594280700 ) ) ;
#303 = DIRECTION ( 'NONE',  ( 0.0000000000000000000, 1.000000000000000000, 0.0000000000000000000 ) ) ;
#304 = UNCERTAINTY_MEASURE_WITH_UNIT (LENGTH_MEASURE( 1.000000000000000100E-005 ), #279, 'distance_accuracy_value', 'NONE');
#305 =( NAMED_UNIT ( * ) SI_UNIT ( $, .STERADIAN. ) SOLID_ANGLE_UNIT ( ) );
#306 =( NAMED_UNIT ( * ) PLANE_ANGLE_UNIT ( ) SI_UNIT ( $, .RADIAN. ) );
#307 =( NAMED_UNIT ( * ) PLANE_ANGLE_UNIT ( ) SI_UNIT ( $, .RADIAN. ) );
#308 = DIRECTION ( 'NONE',  ( -1.000000000000000000, 0.0000000000000000000, 0.0000000000000000000 ) ) ;
#309 = CARTESIAN_POINT ( 'NONE',  ( 0.0000000000000000000, -6.287765293202213200E-014, 512.2200000000000300 ) ) ;
#310 = DIRECTION ( 'NONE',  ( 1.000000000000000000, 0.0000000000000000000, 0.0000000000000000000 ) ) ;
#311 = DIRECTION ( 'NONE',  ( -0.0000000000000000000, -0.0000000000000000000, 1.000000000000000000 ) ) ;
#312 = AXIS2_PLACEMENT_3D ( 'NONE', #302, #311, #310 ) ;
#313 = CIRCLE ( 'NONE', #312, 25.40000000000000200 ) ;
#314 = SHAPE_DEFINITION_REPRESENTATION ( #287, #276 ) ;
#315 = DIRECTION ( 'NONE',  ( 1.000000000000000000, 0.0000000000000000000, 0.0000000000000000000 ) ) ;
#316 = DIRECTION ( 'NONE',  ( 0.0000000000000000000, 0.0000000000000000000, 1.000000000000000000 ) ) ;
#317 = AXIS2_PLACEMENT_3D ( 'NONE', #300, #316, #315 ) ;
#318 = PRODUCT ( '3385-E0W', '3385-E0W', '', ( #319 ) ) ;
#319 = PRODUCT_CONTEXT ( 'NONE', #301, 'mechanical' ) ;
#320 = APPLICATION_PROTOCOL_DEFINITION ( 'draft international standard', 'automotive_design', 1998, #301 ) ;
#321 = SPHERICAL_SURFACE ( 'NONE', #277, 514.3500000000000200 ) ;
#322 =( GEOMETRIC_REPRESENTATION_CONTEXT ( 3 ) GLOBAL_UNCERTAINTY_ASSIGNED_CONTEXT ( ( #297 ) ) GLOBAL_UNIT_ASSIGNED_CONTEXT ( ( #89, #307, #278 ) ) REPRESENTATION_CONTEXT ( 'NONE', 'WORKASPACE' ) );
ENDSEC;
END-ISO-10303-21;
