ISO-10303-21;
HEADER;
FILE_DESCRIPTION (( 'STEP AP203' ),
    '1' );
FILE_NAME ('step_32504.step',
    '2014-06-05T19:28:05',
    ( '' ),
    ( '' ),
    'SwSTEP 2.0',
    'SolidWorks 2014',
    '' );
FILE_SCHEMA (( 'CONFIG_CONTROL_DESIGN' ));
ENDSEC;

DATA;
#1 = VERTEX_POINT ( 'NONE', #314 ) ;
#2 = CARTESIAN_POINT ( 'NONE',  ( 20.00000000000000000, 20.00000000000000000, 0.0000000000000000000 ) ) ;
#3 = APPROVAL_STATUS ( 'not_yet_approved' ) ;
#4 = CARTESIAN_POINT ( 'NONE',  ( 19.99999999999999600, 1.224646799147353300E-015, 0.0000000000000000000 ) ) ;
#5 = PERSON_AND_ORGANIZATION ( #228, #291 ) ;
#6 = APPROVAL_PERSON_ORGANIZATION ( #119, #132, #236 ) ;
#7 = APPROVAL_DATE_TIME ( #245, #132 ) ;
#8 = VECTOR ( 'NONE', #154, 1000.000000000000000 ) ;
#9 = APPROVAL ( #112, 'UNSPECIFIED' ) ;
#10 = CLOSED_SHELL ( 'NONE', ( #247, #138, #174, #77, #28 ) ) ;
#11 = ORIENTED_EDGE ( 'NONE', *, *, #55, .F. ) ;
#12 = CARTESIAN_POINT ( 'NONE',  ( 0.0000000000000000000, 0.0000000000000000000, 20.00000000000000000 ) ) ;
#13 = DATE_AND_TIME ( #92, #241 ) ;
#14 = ORIENTED_EDGE ( 'NONE', *, *, #152, .F. ) ;
#15 = ORIENTED_EDGE ( 'NONE', *, *, #180, .F. ) ;
#16 = DIRECTION ( 'NONE',  ( -0.7071067811865474600, -0.7071067811865474600, -0.0000000000000000000 ) ) ;
#17 = LINE ( 'NONE', #301, #276 ) ;
#18 = DIRECTION ( 'NONE',  ( 1.734723475976807100E-016, 1.000000000000000000, -0.0000000000000000000 ) ) ;
#19 = DIRECTION ( 'NONE',  ( 0.0000000000000000000, 0.0000000000000000000, -1.000000000000000000 ) ) ;
#20 = VERTEX_POINT ( 'NONE', #38 ) ;
#21 = VECTOR ( 'NONE', #139, 1000.000000000000000 ) ;
#22 = CARTESIAN_POINT ( 'NONE',  ( 0.0000000000000000000, 0.0000000000000000000, 20.00000000000000000 ) ) ;
#23 = CC_DESIGN_DATE_AND_TIME_ASSIGNMENT ( #13, #107, ( #29 ) ) ;
#24 = EDGE_CURVE ( 'NONE', #178, #95, #86, .T. ) ;
#25 = CC_DESIGN_PERSON_AND_ORGANIZATION_ASSIGNMENT ( #120, #103, ( #29 ) ) ;
#26 = VECTOR ( 'NONE', #246, 1000.000000000000000 ) ;
#27 = CALENDAR_DATE ( 2014, 5, 6 ) ;
#28 = ADVANCED_FACE ( 'NONE', ( #149 ), #142, .F. ) ;
#29 = SECURITY_CLASSIFICATION ( '', '', #94 ) ;
#30 = VECTOR ( 'NONE', #57, 1000.000000000000000 ) ;
#31 = ORIENTED_EDGE ( 'NONE', *, *, #187, .F. ) ;
#32 = DIRECTION ( 'NONE',  ( -1.000000000000000000, 1.734723475976807100E-016, 0.0000000000000000000 ) ) ;
#33 = PLANE ( 'NONE',  #216 ) ;
#34 = EDGE_LOOP ( 'NONE', ( #122, #14, #282, #242 ) ) ;
#35 = CALENDAR_DATE ( 2014, 5, 6 ) ;
#36 = ORIENTED_EDGE ( 'NONE', *, *, #88, .T. ) ;
#37 = APPLICATION_PROTOCOL_DEFINITION ( 'international standard', 'config_control_design', 1994, #43 ) ;
#38 = CARTESIAN_POINT ( 'NONE',  ( 19.99999999999999600, 1.224646799147353300E-015, 20.00000000000000000 ) ) ;
#39 = CC_DESIGN_PERSON_AND_ORGANIZATION_ASSIGNMENT ( #194, #68, ( #84 ) ) ;
#40 = ORIENTED_EDGE ( 'NONE', *, *, #50, .F. ) ;
#41 = PERSON_AND_ORGANIZATION_ROLE ( 'creator' ) ;
#42 = DIRECTION ( 'NONE',  ( -0.7071067811865474600, -0.7071067811865474600, 0.0000000000000000000 ) ) ;
#43 = APPLICATION_CONTEXT ( 'configuration controlled 3d designs of mechanical parts and assemblies' ) ;
#44 = VECTOR ( 'NONE', #298, 1000.000000000000000 ) ;
#45 = CC_DESIGN_APPROVAL ( #9, ( #29 ) ) ;
#46 = DIRECTION ( 'NONE',  ( 0.0000000000000000000, 0.0000000000000000000, -1.000000000000000000 ) ) ;
#47 = ORIENTED_EDGE ( 'NONE', *, *, #78, .F. ) ;
#48 = CARTESIAN_POINT ( 'NONE',  ( 0.0000000000000000000, 0.0000000000000000000, 0.0000000000000000000 ) ) ;
#49 = CC_DESIGN_PERSON_AND_ORGANIZATION_ASSIGNMENT ( #311, #167, ( #84 ) ) ;
#50 = EDGE_CURVE ( 'NONE', #95, #239, #220, .T. ) ;
#51 = ADVANCED_FACE ( 'NONE', ( #114 ), #275, .F. ) ;
#52 = CC_DESIGN_APPROVAL ( #60, ( #84 ) ) ;
#53 = FACE_OUTER_BOUND ( 'NONE', #34, .T. ) ;
#54 = EDGE_LOOP ( 'NONE', ( #287, #163, #31 ) ) ;
#55 = EDGE_CURVE ( 'NONE', #1, #20, #265, .T. ) ;
#56 = APPLICATION_PROTOCOL_DEFINITION ( 'international standard', 'config_control_design', 1994, #188 ) ;
#57 = DIRECTION ( 'NONE',  ( -0.0000000000000000000, -0.0000000000000000000, -1.000000000000000000 ) ) ;
#58 = LINE ( 'NONE', #201, #262 ) ;
#59 = CARTESIAN_POINT ( 'NONE',  ( 0.0000000000000000000, 20.00000000000000000, 0.0000000000000000000 ) ) ;
#60 = APPROVAL ( #190, 'UNSPECIFIED' ) ;
#61 = CARTESIAN_POINT ( 'NONE',  ( 0.0000000000000000000, 0.0000000000000000000, 0.0000000000000000000 ) ) ;
#62 = ORIENTED_EDGE ( 'NONE', *, *, #166, .T. ) ;
#63 = LINE ( 'NONE', #59, #102 ) ;
#64 = CARTESIAN_POINT ( 'NONE',  ( 20.00000000000000000, 20.00000000000000000, 20.00000000000000000 ) ) ;
#65 = DIRECTION ( 'NONE',  ( -0.7071067811865474600, -0.7071067811865474600, -0.0000000000000000000 ) ) ;
#66 = DIRECTION ( 'NONE',  ( -0.0000000000000000000, -0.0000000000000000000, -1.000000000000000000 ) ) ;
#67 = EDGE_LOOP ( 'NONE', ( #211, #15, #221, #128 ) ) ;
#68 = PERSON_AND_ORGANIZATION_ROLE ( 'design_supplier' ) ;
#69 = LINE ( 'NONE', #104, #164 ) ;
#70 = VECTOR ( 'NONE', #82, 1000.000000000000100 ) ;
#71 = DIRECTION ( 'NONE',  ( -0.7071067811865475700, 0.7071067811865475700, 0.0000000000000000000 ) ) ;
#72 = EDGE_CURVE ( 'NONE', #223, #90, #234, .T. ) ;
#73 = ORIENTED_EDGE ( 'NONE', *, *, #137, .T. ) ;
#74 = ORIENTED_EDGE ( 'NONE', *, *, #24, .T. ) ;
#75 = PLANE ( 'NONE',  #199 ) ;
#76 = EDGE_CURVE ( 'NONE', #178, #155, #248, .T. ) ;
#77 = ADVANCED_FACE ( 'NONE', ( #254 ), #97, .T. ) ;
#78 = EDGE_CURVE ( 'NONE', #115, #178, #144, .T. ) ;
#79 = ORIENTED_EDGE ( 'NONE', *, *, #55, .T. ) ;
#80 = FACE_OUTER_BOUND ( 'NONE', #54, .T. ) ;
#81 = EDGE_CURVE ( 'NONE', #223, #1, #277, .T. ) ;
#82 = DIRECTION ( 'NONE',  ( 0.7071067811865474600, 0.7071067811865474600, -0.0000000000000000000 ) ) ;
#83 = COORDINATED_UNIVERSAL_TIME_OFFSET ( 7, 0, .BEHIND. ) ;
#84 = PRODUCT_DEFINITION_FORMATION_WITH_SPECIFIED_SOURCE ( 'ANY', '', #253, .NOT_KNOWN. ) ;
#85 = APPROVAL_ROLE ( '' ) ;
#86 = LINE ( 'NONE', #146, #261 ) ;
#87 = ORIENTED_EDGE ( 'NONE', *, *, #180, .T. ) ;
#88 = EDGE_CURVE ( 'NONE', #148, #105, #58, .T. ) ;
#89 = PERSON_AND_ORGANIZATION_ROLE ( 'design_owner' ) ;
#90 = VERTEX_POINT ( 'NONE', #2 ) ;
#91 = PERSON_AND_ORGANIZATION ( #228, #291 ) ;
#92 = CALENDAR_DATE ( 2014, 5, 6 ) ;
#93 = COORDINATED_UNIVERSAL_TIME_OFFSET ( 7, 0, .BEHIND. ) ;
#94 = SECURITY_CLASSIFICATION_LEVEL ( 'unclassified' ) ;
#95 = VERTEX_POINT ( 'NONE', #290 ) ;
#96 = EDGE_LOOP ( 'NONE', ( #62, #206, #47, #87 ) ) ;
#97 = PLANE ( 'NONE',  #176 ) ;
#98 = CC_DESIGN_DATE_AND_TIME_ASSIGNMENT ( #312, #315, ( #143 ) ) ;
#99 = DIRECTION ( 'NONE',  ( 1.734723475976807100E-016, 1.000000000000000000, -0.0000000000000000000 ) ) ;
#100 = CARTESIAN_POINT ( 'NONE',  ( 20.00000000000000000, 20.00000000000000000, 0.0000000000000000000 ) ) ;
#101 = ORIENTED_EDGE ( 'NONE', *, *, #165, .F. ) ;
#102 = VECTOR ( 'NONE', #169, 1000.000000000000000 ) ;
#103 = PERSON_AND_ORGANIZATION_ROLE ( 'classification_officer' ) ;
#104 = CARTESIAN_POINT ( 'NONE',  ( 0.0000000000000000000, 0.0000000000000000000, 0.0000000000000000000 ) ) ;
#105 = VERTEX_POINT ( 'NONE', #4 ) ;
#106 = DIRECTION ( 'NONE',  ( -1.000000000000000000, 0.0000000000000000000, 0.0000000000000000000 ) ) ;
#107 = DATE_TIME_ROLE ( 'classification_date' ) ;
#108 = COORDINATED_UNIVERSAL_TIME_OFFSET ( 7, 0, .BEHIND. ) ;
#109 = LINE ( 'NONE', #318, #244 ) ;
#110 = COORDINATED_UNIVERSAL_TIME_OFFSET ( 7, 0, .BEHIND. ) ;
#111 = CC_DESIGN_PERSON_AND_ORGANIZATION_ASSIGNMENT ( #5, #41, ( #143 ) ) ;
#112 = APPROVAL_STATUS ( 'not_yet_approved' ) ;
#113 = DIRECTION ( 'NONE',  ( -0.0000000000000000000, -1.000000000000000000, -0.0000000000000000000 ) ) ;
#114 = FACE_OUTER_BOUND ( 'NONE', #255, .T. ) ;
#115 = VERTEX_POINT ( 'NONE', #170 ) ;
#116 = CC_DESIGN_APPROVAL ( #132, ( #143 ) ) ;
#117 = APPROVAL_ROLE ( '' ) ;
#118 = EDGE_CURVE ( 'NONE', #95, #115, #109, .T. ) ;
#119 = PERSON_AND_ORGANIZATION ( #228, #291 ) ;
#120 = PERSON_AND_ORGANIZATION ( #228, #291 ) ;
#121 = EDGE_CURVE ( 'NONE', #155, #239, #125, .T. ) ;
#122 = ORIENTED_EDGE ( 'NONE', *, *, #165, .T. ) ;
#123 =( LENGTH_UNIT ( ) NAMED_UNIT ( * ) SI_UNIT ( .MILLI., .METRE. ) );
#124 = ORIENTED_EDGE ( 'NONE', *, *, #88, .F. ) ;
#125 = LINE ( 'NONE', #289, #70 ) ;
#126 = APPROVAL_PERSON_ORGANIZATION ( #153, #9, #117 ) ;
#127 = DATE_AND_TIME ( #317, #214 ) ;
#128 = ORIENTED_EDGE ( 'NONE', *, *, #50, .T. ) ;
#129 = LINE ( 'NONE', #210, #303 ) ;
#130 = DIRECTION ( 'NONE',  ( 0.0000000000000000000, -0.0000000000000000000, -1.000000000000000000 ) ) ;
#131 = APPROVAL_DATE_TIME ( #171, #9 ) ;
#132 = APPROVAL ( #3, 'UNSPECIFIED' ) ;
#133 = DESIGN_CONTEXT ( 'detailed design', #188, 'design' ) ;
#134 = AXIS2_PLACEMENT_3D ( 'NONE', #192, #71, #42 ) ;
#135 = CARTESIAN_POINT ( 'NONE',  ( 19.99999999999999600, 1.224646799147353300E-015, 20.00000000000000000 ) ) ;
#136 = DIRECTION ( 'NONE',  ( 1.000000000000000000, 0.0000000000000000000, 0.0000000000000000000 ) ) ;
#137 = EDGE_CURVE ( 'NONE', #20, #105, #212, .T. ) ;
#138 = ADVANCED_FACE ( 'NONE', ( #172 ), #158, .F. ) ;
#139 = DIRECTION ( 'NONE',  ( -0.0000000000000000000, -0.0000000000000000000, -1.000000000000000000 ) ) ;
#140 = COORDINATED_UNIVERSAL_TIME_OFFSET ( 7, 0, .BEHIND. ) ;
#141 = PLANE ( 'NONE',  #305 ) ;
#142 = PLANE ( 'NONE',  #269 ) ;
#143 = PRODUCT_DEFINITION ( 'UNKNOWN', '', #84, #133 ) ;
#144 = LINE ( 'NONE', #281, #177 ) ;
#145 = LOCAL_TIME ( 12, 28, 5.000000000000000000, #110 ) ;
#146 = CARTESIAN_POINT ( 'NONE',  ( 20.00000000000000000, 20.00000000000000000, 20.00000000000000000 ) ) ;
#147 = DIRECTION ( 'NONE',  ( 0.7071067811865474600, 0.7071067811865474600, 0.0000000000000000000 ) ) ;
#148 = VERTEX_POINT ( 'NONE', #48 ) ;
#149 = FACE_OUTER_BOUND ( 'NONE', #283, .T. ) ;
#150 = CC_DESIGN_PERSON_AND_ORGANIZATION_ASSIGNMENT ( #91, #89, ( #253 ) ) ;
#151 = DIRECTION ( 'NONE',  ( 1.000000000000000000, 0.0000000000000000000, 0.0000000000000000000 ) ) ;
#152 = EDGE_CURVE ( 'NONE', #1, #148, #308, .T. ) ;
#153 = PERSON_AND_ORGANIZATION ( #228, #291 ) ;
#154 = DIRECTION ( 'NONE',  ( -0.0000000000000000000, -0.0000000000000000000, -1.000000000000000000 ) ) ;
#155 = VERTEX_POINT ( 'NONE', #193 ) ;
#156 = CARTESIAN_POINT ( 'NONE',  ( 0.0000000000000000000, 20.00000000000000000, 0.0000000000000000000 ) ) ;
#157 = CC_DESIGN_SECURITY_CLASSIFICATION ( #29, ( #84 ) ) ;
#158 = PLANE ( 'NONE',  #204 ) ;
#159 = DIRECTION ( 'NONE',  ( 0.0000000000000000000, -1.000000000000000000, 0.0000000000000000000 ) ) ;
#160 = PLANE ( 'NONE',  #233 ) ;
#161 = CALENDAR_DATE ( 2014, 5, 6 ) ;
#162 = AXIS2_PLACEMENT_3D ( 'NONE', #168, #202, #136 ) ;
#163 = ORIENTED_EDGE ( 'NONE', *, *, #166, .F. ) ;
#164 = VECTOR ( 'NONE', #16, 1000.000000000000100 ) ;
#165 = EDGE_CURVE ( 'NONE', #90, #148, #69, .T. ) ;
#166 = EDGE_CURVE ( 'NONE', #288, #155, #129, .T. ) ;
#167 = PERSON_AND_ORGANIZATION_ROLE ( 'creator' ) ;
#168 = CARTESIAN_POINT ( 'NONE',  ( 0.0000000000000000000, 0.0000000000000000000, 0.0000000000000000000 ) ) ;
#169 = DIRECTION ( 'NONE',  ( -1.000000000000000000, -0.0000000000000000000, -0.0000000000000000000 ) ) ;
#170 = CARTESIAN_POINT ( 'NONE',  ( 0.0000000000000000000, 20.00000000000000000, 20.00000000000000000 ) ) ;
#171 = DATE_AND_TIME ( #35, #145 ) ;
#172 = FACE_OUTER_BOUND ( 'NONE', #173, .T. ) ;
#173 = EDGE_LOOP ( 'NONE', ( #320, #272, #179, #73 ) ) ;
#174 = ADVANCED_FACE ( 'NONE', ( #53 ), #141, .F. ) ;
#175 = CARTESIAN_POINT ( 'NONE',  ( 0.0000000000000000000, 0.0000000000000000000, 20.00000000000000000 ) ) ;
#176 = AXIS2_PLACEMENT_3D ( 'NONE', #297, #227, #213 ) ;
#177 = VECTOR ( 'NONE', #113, 1000.000000000000000 ) ;
#178 = VERTEX_POINT ( 'NONE', #295 ) ;
#179 = ORIENTED_EDGE ( 'NONE', *, *, #280, .F. ) ;
#180 = EDGE_CURVE ( 'NONE', #115, #288, #231, .T. ) ;
#181 = VECTOR ( 'NONE', #267, 1000.000000000000000 ) ;
#182 = PRODUCT_DEFINITION_SHAPE ( 'NONE', 'NONE',  #143 ) ;
#183 = CARTESIAN_POINT ( 'NONE',  ( 19.99999999999999600, 1.224646799147353300E-015, 20.00000000000000000 ) ) ;
#184 = CARTESIAN_POINT ( 'NONE',  ( 20.00000000000000000, 20.00000000000000000, 20.00000000000000000 ) ) ;
#185 = FACE_OUTER_BOUND ( 'NONE', #67, .T. ) ;
#186 = LINE ( 'NONE', #100, #240 ) ;
#187 = EDGE_CURVE ( 'NONE', #239, #288, #63, .T. ) ;
#188 = APPLICATION_CONTEXT ( 'configuration controlled 3d designs of mechanical parts and assemblies' ) ;
#189 = PLANE ( 'NONE',  #243 ) ;
#190 = APPROVAL_STATUS ( 'not_yet_approved' ) ;
#191 = ORIENTED_EDGE ( 'NONE', *, *, #81, .T. ) ;
#192 = CARTESIAN_POINT ( 'NONE',  ( 20.00000000000000000, 20.00000000000000000, 20.00000000000000000 ) ) ;
#193 = CARTESIAN_POINT ( 'NONE',  ( 0.0000000000000000000, 0.0000000000000000000, 0.0000000000000000000 ) ) ;
#194 = PERSON_AND_ORGANIZATION ( #228, #291 ) ;
#195 = ADVANCED_FACE ( 'NONE', ( #80 ), #251, .T. ) ;
#196 = VECTOR ( 'NONE', #66, 1000.000000000000000 ) ;
#197 = CARTESIAN_POINT ( 'NONE',  ( 20.00000000000000000, 20.00000000000000000, 20.00000000000000000 ) ) ;
#198 = MANIFOLD_SOLID_BREP ( 'Boss-Extrude1', #235 ) ;
#199 = AXIS2_PLACEMENT_3D ( 'NONE', #219, #151, #19 ) ;
#200 =( GEOMETRIC_REPRESENTATION_CONTEXT ( 3 ) GLOBAL_UNCERTAINTY_ASSIGNED_CONTEXT ( ( #279 ) ) GLOBAL_UNIT_ASSIGNED_CONTEXT ( ( #123, #256, #226 ) ) REPRESENTATION_CONTEXT ( 'NONE', 'WORKASPACE' ) );
#201 = CARTESIAN_POINT ( 'NONE',  ( 19.99999999999999600, 1.224646799147353300E-015, 0.0000000000000000000 ) ) ;
#202 = DIRECTION ( 'NONE',  ( 0.0000000000000000000, 0.0000000000000000000, 1.000000000000000000 ) ) ;
#203 = SHAPE_DEFINITION_REPRESENTATION ( #182, #218 ) ;
#204 = AXIS2_PLACEMENT_3D ( 'NONE', #321, #32, #310 ) ;
#205 = DIRECTION ( 'NONE',  ( -1.000000000000000000, -6.123233995736767300E-017, 0.0000000000000000000 ) ) ;
#206 = ORIENTED_EDGE ( 'NONE', *, *, #76, .F. ) ;
#207 = CARTESIAN_POINT ( 'NONE',  ( 0.0000000000000000000, 0.0000000000000000000, 0.0000000000000000000 ) ) ;
#208 = CARTESIAN_POINT ( 'NONE',  ( 0.0000000000000000000, 0.0000000000000000000, 20.00000000000000000 ) ) ;
#209 = LOCAL_TIME ( 12, 28, 5.000000000000000000, #108 ) ;
#210 = CARTESIAN_POINT ( 'NONE',  ( 0.0000000000000000000, 0.0000000000000000000, 0.0000000000000000000 ) ) ;
#211 = ORIENTED_EDGE ( 'NONE', *, *, #187, .T. ) ;
#212 = LINE ( 'NONE', #183, #26 ) ;
#213 = DIRECTION ( 'NONE',  ( 1.000000000000000000, 0.0000000000000000000, -0.0000000000000000000 ) ) ;
#214 = LOCAL_TIME ( 12, 28, 5.000000000000000000, #93 ) ;
#215 = ORIENTED_EDGE ( 'NONE', *, *, #137, .F. ) ;
#216 = AXIS2_PLACEMENT_3D ( 'NONE', #217, #159, #130 ) ;
#217 = CARTESIAN_POINT ( 'NONE',  ( 0.0000000000000000000, 20.00000000000000000, 20.00000000000000000 ) ) ;
#218 = ADVANCED_BREP_SHAPE_REPRESENTATION ( 'step_32504', ( #198, #302, #162 ), #200 ) ;
#219 = CARTESIAN_POINT ( 'NONE',  ( 0.0000000000000000000, 0.0000000000000000000, 20.00000000000000000 ) ) ;
#220 = LINE ( 'NONE', #184, #30 ) ;
#221 = ORIENTED_EDGE ( 'NONE', *, *, #118, .F. ) ;
#222 = FACE_OUTER_BOUND ( 'NONE', #96, .T. ) ;
#223 = VERTEX_POINT ( 'NONE', #197 ) ;
#224 = PRODUCT_RELATED_PRODUCT_CATEGORY ( 'detail', '', ( #253 ) ) ;
#225 = EDGE_CURVE ( 'NONE', #105, #90, #186, .T. ) ;
#226 =( NAMED_UNIT ( * ) SI_UNIT ( $, .STERADIAN. ) SOLID_ANGLE_UNIT ( ) );
#227 = DIRECTION ( 'NONE',  ( 0.0000000000000000000, 0.0000000000000000000, 1.000000000000000000 ) ) ;
#228 = PERSON ( 'UNSPECIFIED', 'UNSPECIFIED', 'UNSPECIFIED', ('UNSPECIFIED'), ('UNSPECIFIED'), ('UNSPECIFIED') ) ;
#229 = CARTESIAN_POINT ( 'NONE',  ( 20.00000000000000000, 20.00000000000000000, 0.0000000000000000000 ) ) ;
#230 = PERSON_AND_ORGANIZATION ( #228, #291 ) ;
#231 = LINE ( 'NONE', #316, #44 ) ;
#232 = ORIENTED_EDGE ( 'NONE', *, *, #76, .T. ) ;
#233 = AXIS2_PLACEMENT_3D ( 'NONE', #175, #46, #106 ) ;
#234 = LINE ( 'NONE', #64, #8 ) ;
#235 = CLOSED_SHELL ( 'NONE', ( #51, #284, #304, #264, #195 ) ) ;
#236 = APPROVAL_ROLE ( '' ) ;
#237 = MECHANICAL_CONTEXT ( 'NONE', #43, 'mechanical' ) ;
#238 = DIRECTION ( 'NONE',  ( -1.000000000000000000, -0.0000000000000000000, -0.0000000000000000000 ) ) ;
#239 = VERTEX_POINT ( 'NONE', #229 ) ;
#240 = VECTOR ( 'NONE', #18, 1000.000000000000000 ) ;
#241 = LOCAL_TIME ( 12, 28, 5.000000000000000000, #83 ) ;
#242 = ORIENTED_EDGE ( 'NONE', *, *, #72, .T. ) ;
#243 = AXIS2_PLACEMENT_3D ( 'NONE', #135, #313, #205 ) ;
#244 = VECTOR ( 'NONE', #238, 1000.000000000000000 ) ;
#245 = DATE_AND_TIME ( #27, #319 ) ;
#246 = DIRECTION ( 'NONE',  ( -0.0000000000000000000, -0.0000000000000000000, -1.000000000000000000 ) ) ;
#247 = ADVANCED_FACE ( 'NONE', ( #273 ), #189, .F. ) ;
#248 = LINE ( 'NONE', #274, #196 ) ;
#249 = FACE_OUTER_BOUND ( 'NONE', #309, .T. ) ;
#250 = DIRECTION ( 'NONE',  ( -1.000000000000000000, 0.0000000000000000000, 0.0000000000000000000 ) ) ;
#251 = PLANE ( 'NONE',  #263 ) ;
#252 = ORIENTED_EDGE ( 'NONE', *, *, #78, .T. ) ;
#253 = PRODUCT ( 'step_32504', 'step_32504', '', ( #237 ) ) ;
#254 = FACE_OUTER_BOUND ( 'NONE', #266, .T. ) ;
#255 = EDGE_LOOP ( 'NONE', ( #300, #40, #271, #232 ) ) ;
#256 =( NAMED_UNIT ( * ) PLANE_ANGLE_UNIT ( ) SI_UNIT ( $, .RADIAN. ) );
#257 = VECTOR ( 'NONE', #65, 1000.000000000000100 ) ;
#258 = CARTESIAN_POINT ( 'NONE',  ( 19.99999999999999600, 1.224646799147353300E-015, 20.00000000000000000 ) ) ;
#259 = DIRECTION ( 'NONE',  ( 0.7071067811865474600, 0.7071067811865474600, -0.0000000000000000000 ) ) ;
#260 = DIRECTION ( 'NONE',  ( 0.0000000000000000000, 0.0000000000000000000, -1.000000000000000000 ) ) ;
#261 = VECTOR ( 'NONE', #259, 1000.000000000000100 ) ;
#262 = VECTOR ( 'NONE', #285, 1000.000000000000000 ) ;
#263 = AXIS2_PLACEMENT_3D ( 'NONE', #61, #260, #250 ) ;
#264 = ADVANCED_FACE ( 'NONE', ( #249 ), #160, .F. ) ;
#265 = LINE ( 'NONE', #258, #181 ) ;
#266 = EDGE_LOOP ( 'NONE', ( #79, #270, #191 ) ) ;
#267 = DIRECTION ( 'NONE',  ( 1.000000000000000000, 6.123233995736767300E-017, -0.0000000000000000000 ) ) ;
#268 = DIRECTION ( 'NONE',  ( 1.000000000000000000, 0.0000000000000000000, -0.0000000000000000000 ) ) ;
#269 = AXIS2_PLACEMENT_3D ( 'NONE', #207, #286, #268 ) ;
#270 = ORIENTED_EDGE ( 'NONE', *, *, #280, .T. ) ;
#271 = ORIENTED_EDGE ( 'NONE', *, *, #24, .F. ) ;
#272 = ORIENTED_EDGE ( 'NONE', *, *, #72, .F. ) ;
#273 = FACE_OUTER_BOUND ( 'NONE', #299, .T. ) ;
#274 = CARTESIAN_POINT ( 'NONE',  ( 0.0000000000000000000, 0.0000000000000000000, 20.00000000000000000 ) ) ;
#275 = PLANE ( 'NONE',  #134 ) ;
#276 = VECTOR ( 'NONE', #99, 1000.000000000000000 ) ;
#277 = LINE ( 'NONE', #22, #257 ) ;
#278 = ORIENTED_EDGE ( 'NONE', *, *, #225, .F. ) ;
#279 = UNCERTAINTY_MEASURE_WITH_UNIT (LENGTH_MEASURE( 1.000000000000000100E-005 ), #123, 'distance_accuracy_value', 'NONE');
#280 = EDGE_CURVE ( 'NONE', #20, #223, #17, .T. ) ;
#281 = CARTESIAN_POINT ( 'NONE',  ( 0.0000000000000000000, 0.0000000000000000000, 20.00000000000000000 ) ) ;
#282 = ORIENTED_EDGE ( 'NONE', *, *, #81, .F. ) ;
#283 = EDGE_LOOP ( 'NONE', ( #124, #101, #278 ) ) ;
#284 = ADVANCED_FACE ( 'NONE', ( #185 ), #33, .F. ) ;
#285 = DIRECTION ( 'NONE',  ( 1.000000000000000000, 6.123233995736767300E-017, -0.0000000000000000000 ) ) ;
#286 = DIRECTION ( 'NONE',  ( 0.0000000000000000000, 0.0000000000000000000, 1.000000000000000000 ) ) ;
#287 = ORIENTED_EDGE ( 'NONE', *, *, #121, .F. ) ;
#288 = VERTEX_POINT ( 'NONE', #156 ) ;
#289 = CARTESIAN_POINT ( 'NONE',  ( 20.00000000000000000, 20.00000000000000000, 0.0000000000000000000 ) ) ;
#290 = CARTESIAN_POINT ( 'NONE',  ( 20.00000000000000000, 20.00000000000000000, 20.00000000000000000 ) ) ;
#291 = ORGANIZATION ( 'UNSPECIFIED', 'UNSPECIFIED', '' ) ;
#292 = ORIENTED_EDGE ( 'NONE', *, *, #118, .T. ) ;
#293 = ORIENTED_EDGE ( 'NONE', *, *, #152, .T. ) ;
#294 = APPROVAL_DATE_TIME ( #127, #60 ) ;
#295 = CARTESIAN_POINT ( 'NONE',  ( 0.0000000000000000000, 0.0000000000000000000, 20.00000000000000000 ) ) ;
#296 = APPROVAL_PERSON_ORGANIZATION ( #230, #60, #85 ) ;
#297 = CARTESIAN_POINT ( 'NONE',  ( 0.0000000000000000000, 0.0000000000000000000, 20.00000000000000000 ) ) ;
#298 = DIRECTION ( 'NONE',  ( -0.0000000000000000000, -0.0000000000000000000, -1.000000000000000000 ) ) ;
#299 = EDGE_LOOP ( 'NONE', ( #36, #215, #11, #293 ) ) ;
#300 = ORIENTED_EDGE ( 'NONE', *, *, #121, .T. ) ;
#301 = CARTESIAN_POINT ( 'NONE',  ( 20.00000000000000000, 20.00000000000000000, 20.00000000000000000 ) ) ;
#302 = MANIFOLD_SOLID_BREP ( 'Boss-Extrude2', #10 ) ;
#303 = VECTOR ( 'NONE', #306, 1000.000000000000000 ) ;
#304 = ADVANCED_FACE ( 'NONE', ( #222 ), #75, .F. ) ;
#305 = AXIS2_PLACEMENT_3D ( 'NONE', #208, #307, #147 ) ;
#306 = DIRECTION ( 'NONE',  ( -0.0000000000000000000, -1.000000000000000000, -0.0000000000000000000 ) ) ;
#307 = DIRECTION ( 'NONE',  ( 0.7071067811865475700, -0.7071067811865475700, 0.0000000000000000000 ) ) ;
#308 = LINE ( 'NONE', #12, #21 ) ;
#309 = EDGE_LOOP ( 'NONE', ( #74, #292, #252 ) ) ;
#310 = DIRECTION ( 'NONE',  ( -1.734723475976807100E-016, -1.000000000000000000, 0.0000000000000000000 ) ) ;
#311 = PERSON_AND_ORGANIZATION ( #228, #291 ) ;
#312 = DATE_AND_TIME ( #161, #209 ) ;
#313 = DIRECTION ( 'NONE',  ( -6.123233995736767300E-017, 1.000000000000000000, 0.0000000000000000000 ) ) ;
#314 = CARTESIAN_POINT ( 'NONE',  ( 0.0000000000000000000, 0.0000000000000000000, 20.00000000000000000 ) ) ;
#315 = DATE_TIME_ROLE ( 'creation_date' ) ;
#316 = CARTESIAN_POINT ( 'NONE',  ( 0.0000000000000000000, 20.00000000000000000, 20.00000000000000000 ) ) ;
#317 = CALENDAR_DATE ( 2014, 5, 6 ) ;
#318 = CARTESIAN_POINT ( 'NONE',  ( 0.0000000000000000000, 20.00000000000000000, 20.00000000000000000 ) ) ;
#319 = LOCAL_TIME ( 12, 28, 5.000000000000000000, #140 ) ;
#320 = ORIENTED_EDGE ( 'NONE', *, *, #225, .T. ) ;
#321 = CARTESIAN_POINT ( 'NONE',  ( 20.00000000000000000, 20.00000000000000000, 20.00000000000000000 ) ) ;
ENDSEC;
END-ISO-10303-21;
