ISO-10303-21;
HEADER;
FILE_DESCRIPTION (( 'STEP AP203' ),
    '1' );
FILE_NAME ('Web Model 11862_11868.step',
    '2019-01-03T21:47:00',
    ( '' ),
    ( '' ),
    'SwSTEP 2.0',
    'SolidWorks 2016',
    '' );
FILE_SCHEMA (( 'CONFIG_CONTROL_DESIGN' ));
ENDSEC;

DATA;
#1 = PERSON_AND_ORGANIZATION ( #83, #69 ) ;
#2 = APPROVAL_PERSON_ORGANIZATION ( #143, #104, #51 ) ;
#3 = CIRCLE ( 'NONE', #145, 12.69999999999999900 ) ;
#4 = DIRECTION ( 'NONE',  ( 0.0000000000000000000, 0.0000000000000000000, 1.000000000000000000 ) ) ;
#5 = APPROVAL_STATUS ( 'not_yet_approved' ) ;
#6 = AXIS2_PLACEMENT_3D ( 'NONE', #32, #4, #166 ) ;
#7 = CARTESIAN_POINT ( 'NONE',  ( 0.0000000000000000000, 0.0000000000000000000, -1.500000000000000000 ) ) ;
#8 = FACE_OUTER_BOUND ( 'NONE', #116, .T. ) ;
#9 = CC_DESIGN_PERSON_AND_ORGANIZATION_ASSIGNMENT ( #1, #108, ( #40 ) ) ;
#10 = ORIENTED_EDGE ( 'NONE', *, *, #76, .F. ) ;
#11 = CC_DESIGN_APPROVAL ( #59, ( #113 ) ) ;
#12 = ORIENTED_EDGE ( 'NONE', *, *, #122, .F. ) ;
#13 = DIRECTION ( 'NONE',  ( 0.0000000000000000000, 0.0000000000000000000, 1.000000000000000000 ) ) ;
#14 = DIRECTION ( 'NONE',  ( -0.0000000000000000000, -0.0000000000000000000, -1.000000000000000000 ) ) ;
#15 = ORIENTED_EDGE ( 'NONE', *, *, #103, .F. ) ;
#16 = EDGE_LOOP ( 'NONE', ( #12, #154 ) ) ;
#17 = MECHANICAL_CONTEXT ( 'NONE', #126, 'mechanical' ) ;
#18 = APPROVAL_ROLE ( '' ) ;
#19 = LOCAL_TIME ( 16, 47, 0.0000000000000000000, #123 ) ;
#20 = EDGE_LOOP ( 'NONE', ( #79, #22 ) ) ;
#21 = DIRECTION ( 'NONE',  ( 1.000000000000000000, 0.0000000000000000000, -0.0000000000000000000 ) ) ;
#22 = ORIENTED_EDGE ( 'NONE', *, *, #139, .T. ) ;
#23 = LOCAL_TIME ( 16, 47, 0.0000000000000000000, #140 ) ;
#24 = DIRECTION ( 'NONE',  ( 1.000000000000000000, 0.0000000000000000000, -0.0000000000000000000 ) ) ;
#25 = CARTESIAN_POINT ( 'NONE',  ( 0.0000000000000000000, 0.0000000000000000000, 1.500000000000000000 ) ) ;
#26 = FACE_OUTER_BOUND ( 'NONE', #20, .T. ) ;
#27 = PERSON_AND_ORGANIZATION_ROLE ( 'design_owner' ) ;
#28 = CARTESIAN_POINT ( 'NONE',  ( 12.69999999999999900, 1.555301434917138400E-015, 1.500000000000000000 ) ) ;
#29 =( NAMED_UNIT ( * ) SI_UNIT ( $, .STERADIAN. ) SOLID_ANGLE_UNIT ( ) );
#30 = APPROVAL_PERSON_ORGANIZATION ( #47, #59, #54 ) ;
#31 = APPROVAL_DATE_TIME ( #131, #104 ) ;
#32 = CARTESIAN_POINT ( 'NONE',  ( 0.0000000000000000000, 0.0000000000000000000, -1.500000000000000000 ) ) ;
#33 = CC_DESIGN_APPROVAL ( #104, ( #37 ) ) ;
#34 = APPROVAL_DATE_TIME ( #106, #56 ) ;
#35 = EDGE_CURVE ( 'NONE', #141, #91, #156, .T. ) ;
#36 = UNCERTAINTY_MEASURE_WITH_UNIT (LENGTH_MEASURE( 1.000000000000000100E-005 ), #86, 'distance_accuracy_value', 'NONE');
#37 = PRODUCT_DEFINITION ( 'UNKNOWN', '', #40, #62 ) ;
#38 = SECURITY_CLASSIFICATION_LEVEL ( 'unclassified' ) ;
#39 = DIRECTION ( 'NONE',  ( 0.0000000000000000000, 0.0000000000000000000, 1.000000000000000000 ) ) ;
#40 = PRODUCT_DEFINITION_FORMATION_WITH_SPECIFIED_SOURCE ( 'ANY', '', #53, .NOT_KNOWN. ) ;
#41 = VERTEX_POINT ( 'NONE', #147 ) ;
#42 = DATE_TIME_ROLE ( 'classification_date' ) ;
#43 = LOCAL_TIME ( 16, 47, 0.0000000000000000000, #171 ) ;
#44 = CIRCLE ( 'NONE', #6, 12.69999999999999900 ) ;
#45 = DATE_AND_TIME ( #158, #19 ) ;
#46 = FACE_OUTER_BOUND ( 'NONE', #16, .T. ) ;
#47 = PERSON_AND_ORGANIZATION ( #83, #69 ) ;
#48 =( GEOMETRIC_REPRESENTATION_CONTEXT ( 3 ) GLOBAL_UNCERTAINTY_ASSIGNED_CONTEXT ( ( #36 ) ) GLOBAL_UNIT_ASSIGNED_CONTEXT ( ( #86, #137, #29 ) ) REPRESENTATION_CONTEXT ( 'NONE', 'WORKASPACE' ) );
#49 = ORIENTED_EDGE ( 'NONE', *, *, #122, .T. ) ;
#50 = DIRECTION ( 'NONE',  ( 1.000000000000000000, 0.0000000000000000000, 0.0000000000000000000 ) ) ;
#51 = APPROVAL_ROLE ( '' ) ;
#52 = PERSON_AND_ORGANIZATION ( #83, #69 ) ;
#53 = PRODUCT ( 'Web Model 11862_11868', 'Web Model 11862_11868', '', ( #17 ) ) ;
#54 = APPROVAL_ROLE ( '' ) ;
#55 = CYLINDRICAL_SURFACE ( 'NONE', #66, 12.69999999999999900 ) ;
#56 = APPROVAL ( #65, 'UNSPECIFIED' ) ;
#57 = AXIS2_PLACEMENT_3D ( 'NONE', #135, #13, #24 ) ;
#58 = AXIS2_PLACEMENT_3D ( 'NONE', #100, #39, #150 ) ;
#59 = APPROVAL ( #138, 'UNSPECIFIED' ) ;
#60 = CARTESIAN_POINT ( 'NONE',  ( 12.69999999999999900, 1.555301434917138400E-015, -1.500000000000000000 ) ) ;
#61 = DIRECTION ( 'NONE',  ( -1.000000000000000000, 0.0000000000000000000, 0.0000000000000000000 ) ) ;
#62 = DESIGN_CONTEXT ( 'detailed design', #165, 'design' ) ;
#63 = DIRECTION ( 'NONE',  ( 0.0000000000000000000, 0.0000000000000000000, 1.000000000000000000 ) ) ;
#64 = PERSON_AND_ORGANIZATION_ROLE ( 'creator' ) ;
#65 = APPROVAL_STATUS ( 'not_yet_approved' ) ;
#66 = AXIS2_PLACEMENT_3D ( 'NONE', #25, #149, #61 ) ;
#67 = DIRECTION ( 'NONE',  ( 0.0000000000000000000, 0.0000000000000000000, 1.000000000000000000 ) ) ;
#68 = CARTESIAN_POINT ( 'NONE',  ( 0.0000000000000000000, 0.0000000000000000000, -1.500000000000000000 ) ) ;
#69 = ORGANIZATION ( 'UNSPECIFIED', 'UNSPECIFIED', '' ) ;
#70 = ADVANCED_FACE ( 'NONE', ( #8 ), #110, .T. ) ;
#71 = CC_DESIGN_PERSON_AND_ORGANIZATION_ASSIGNMENT ( #102, #27, ( #53 ) ) ;
#72 = ADVANCED_FACE ( 'NONE', ( #26 ), #95, .T. ) ;
#73 = LINE ( 'NONE', #163, #128 ) ;
#74 = ADVANCED_FACE ( 'NONE', ( #87 ), #55, .T. ) ;
#75 = CALENDAR_DATE ( 2019, 3, 1 ) ;
#76 = EDGE_CURVE ( 'NONE', #173, #41, #73, .T. ) ;
#77 = ORIENTED_EDGE ( 'NONE', *, *, #153, .T. ) ;
#78 = APPROVAL_DATE_TIME ( #133, #59 ) ;
#79 = ORIENTED_EDGE ( 'NONE', *, *, #103, .T. ) ;
#80 = CC_DESIGN_DATE_AND_TIME_ASSIGNMENT ( #174, #42, ( #113 ) ) ;
#81 = CARTESIAN_POINT ( 'NONE',  ( 0.0000000000000000000, 0.0000000000000000000, 1.500000000000000000 ) ) ;
#82 = AXIS2_PLACEMENT_3D ( 'NONE', #68, #63, #21 ) ;
#83 = PERSON ( 'UNSPECIFIED', 'UNSPECIFIED', 'UNSPECIFIED', ('UNSPECIFIED'), ('UNSPECIFIED'), ('UNSPECIFIED') ) ;
#84 = ADVANCED_BREP_SHAPE_REPRESENTATION ( 'Web Model 11862_11868', ( #146, #58 ), #48 ) ;
#85 = LOCAL_TIME ( 16, 47, 0.0000000000000000000, #155 ) ;
#86 =( LENGTH_UNIT ( ) NAMED_UNIT ( * ) SI_UNIT ( .MILLI., .METRE. ) );
#87 = FACE_OUTER_BOUND ( 'NONE', #114, .T. ) ;
#88 = CARTESIAN_POINT ( 'NONE',  ( 0.0000000000000000000, 0.0000000000000000000, 1.500000000000000000 ) ) ;
#89 = APPROVAL_PERSON_ORGANIZATION ( #142, #56, #18 ) ;
#90 = DIRECTION ( 'NONE',  ( 1.000000000000000000, 0.0000000000000000000, 0.0000000000000000000 ) ) ;
#91 = VERTEX_POINT ( 'NONE', #60 ) ;
#92 = PRODUCT_RELATED_PRODUCT_CATEGORY ( 'detail', '', ( #53 ) ) ;
#93 = PERSON_AND_ORGANIZATION ( #83, #69 ) ;
#94 = CIRCLE ( 'NONE', #161, 12.69999999999999900 ) ;
#95 = PLANE ( 'NONE',  #57 ) ;
#96 = CARTESIAN_POINT ( 'NONE',  ( 12.69999999999999900, 1.555301434917138400E-015, 1.500000000000000000 ) ) ;
#97 = SHAPE_DEFINITION_REPRESENTATION ( #170, #84 ) ;
#98 = APPLICATION_PROTOCOL_DEFINITION ( 'international standard', 'config_control_design', 1994, #126 ) ;
#99 = CARTESIAN_POINT ( 'NONE',  ( -12.69999999999999900, 0.0000000000000000000, 1.500000000000000000 ) ) ;
#100 = CARTESIAN_POINT ( 'NONE',  ( 0.0000000000000000000, 0.0000000000000000000, 0.0000000000000000000 ) ) ;
#101 = LOCAL_TIME ( 16, 47, 0.0000000000000000000, #121 ) ;
#102 = PERSON_AND_ORGANIZATION ( #83, #69 ) ;
#103 = EDGE_CURVE ( 'NONE', #173, #141, #94, .T. ) ;
#104 = APPROVAL ( #5, 'UNSPECIFIED' ) ;
#105 = ORIENTED_EDGE ( 'NONE', *, *, #76, .T. ) ;
#106 = DATE_AND_TIME ( #75, #101 ) ;
#107 = CIRCLE ( 'NONE', #172, 12.69999999999999900 ) ;
#108 = PERSON_AND_ORGANIZATION_ROLE ( 'design_supplier' ) ;
#109 = PERSON_AND_ORGANIZATION ( #83, #69 ) ;
#110 = CYLINDRICAL_SURFACE ( 'NONE', #157, 12.69999999999999900 ) ;
#111 = CARTESIAN_POINT ( 'NONE',  ( 0.0000000000000000000, 0.0000000000000000000, 1.500000000000000000 ) ) ;
#112 = DATE_TIME_ROLE ( 'creation_date' ) ;
#113 = SECURITY_CLASSIFICATION ( '', '', #38 ) ;
#114 = EDGE_LOOP ( 'NONE', ( #117, #15, #105, #49 ) ) ;
#115 = CALENDAR_DATE ( 2019, 3, 1 ) ;
#116 = EDGE_LOOP ( 'NONE', ( #169, #148, #77, #10 ) ) ;
#117 = ORIENTED_EDGE ( 'NONE', *, *, #35, .F. ) ;
#118 = CC_DESIGN_PERSON_AND_ORGANIZATION_ASSIGNMENT ( #52, #151, ( #37 ) ) ;
#119 = CC_DESIGN_PERSON_AND_ORGANIZATION_ASSIGNMENT ( #93, #64, ( #40 ) ) ;
#120 = PLANE ( 'NONE',  #82 ) ;
#121 = COORDINATED_UNIVERSAL_TIME_OFFSET ( 5, 0, .BEHIND. ) ;
#122 = EDGE_CURVE ( 'NONE', #41, #91, #3, .T. ) ;
#123 = COORDINATED_UNIVERSAL_TIME_OFFSET ( 5, 0, .BEHIND. ) ;
#124 = DIRECTION ( 'NONE',  ( 0.0000000000000000000, 0.0000000000000000000, 1.000000000000000000 ) ) ;
#125 = DIRECTION ( 'NONE',  ( 0.0000000000000000000, 0.0000000000000000000, 1.000000000000000000 ) ) ;
#126 = APPLICATION_CONTEXT ( 'configuration controlled 3d designs of mechanical parts and assemblies' ) ;
#127 = CC_DESIGN_SECURITY_CLASSIFICATION ( #113, ( #40 ) ) ;
#128 = VECTOR ( 'NONE', #162, 1000.000000000000000 ) ;
#129 = APPLICATION_PROTOCOL_DEFINITION ( 'international standard', 'config_control_design', 1994, #165 ) ;
#130 = CC_DESIGN_DATE_AND_TIME_ASSIGNMENT ( #45, #112, ( #37 ) ) ;
#131 = DATE_AND_TIME ( #164, #23 ) ;
#132 = ADVANCED_FACE ( 'NONE', ( #46 ), #120, .F. ) ;
#133 = DATE_AND_TIME ( #115, #43 ) ;
#134 = DIRECTION ( 'NONE',  ( -1.000000000000000000, 0.0000000000000000000, 0.0000000000000000000 ) ) ;
#135 = CARTESIAN_POINT ( 'NONE',  ( 0.0000000000000000000, 0.0000000000000000000, 1.500000000000000000 ) ) ;
#136 = CALENDAR_DATE ( 2019, 3, 1 ) ;
#137 =( NAMED_UNIT ( * ) PLANE_ANGLE_UNIT ( ) SI_UNIT ( $, .RADIAN. ) );
#138 = APPROVAL_STATUS ( 'not_yet_approved' ) ;
#139 = EDGE_CURVE ( 'NONE', #141, #173, #107, .T. ) ;
#140 = COORDINATED_UNIVERSAL_TIME_OFFSET ( 5, 0, .BEHIND. ) ;
#141 = VERTEX_POINT ( 'NONE', #28 ) ;
#142 = PERSON_AND_ORGANIZATION ( #83, #69 ) ;
#143 = PERSON_AND_ORGANIZATION ( #83, #69 ) ;
#144 = VECTOR ( 'NONE', #14, 1000.000000000000000 ) ;
#145 = AXIS2_PLACEMENT_3D ( 'NONE', #7, #67, #90 ) ;
#146 = MANIFOLD_SOLID_BREP ( 'Boss-Extrude1', #159 ) ;
#147 = CARTESIAN_POINT ( 'NONE',  ( -12.69999999999999900, 0.0000000000000000000, -1.500000000000000000 ) ) ;
#148 = ORIENTED_EDGE ( 'NONE', *, *, #35, .T. ) ;
#149 = DIRECTION ( 'NONE',  ( -0.0000000000000000000, -0.0000000000000000000, -1.000000000000000000 ) ) ;
#150 = DIRECTION ( 'NONE',  ( 1.000000000000000000, 0.0000000000000000000, 0.0000000000000000000 ) ) ;
#151 = PERSON_AND_ORGANIZATION_ROLE ( 'creator' ) ;
#152 = PERSON_AND_ORGANIZATION_ROLE ( 'classification_officer' ) ;
#153 = EDGE_CURVE ( 'NONE', #91, #41, #44, .T. ) ;
#154 = ORIENTED_EDGE ( 'NONE', *, *, #153, .F. ) ;
#155 = COORDINATED_UNIVERSAL_TIME_OFFSET ( 5, 0, .BEHIND. ) ;
#156 = LINE ( 'NONE', #96, #144 ) ;
#157 = AXIS2_PLACEMENT_3D ( 'NONE', #81, #175, #134 ) ;
#158 = CALENDAR_DATE ( 2019, 3, 1 ) ;
#159 = CLOSED_SHELL ( 'NONE', ( #70, #74, #72, #132 ) ) ;
#160 = CC_DESIGN_PERSON_AND_ORGANIZATION_ASSIGNMENT ( #109, #152, ( #113 ) ) ;
#161 = AXIS2_PLACEMENT_3D ( 'NONE', #111, #125, #167 ) ;
#162 = DIRECTION ( 'NONE',  ( -0.0000000000000000000, -0.0000000000000000000, -1.000000000000000000 ) ) ;
#163 = CARTESIAN_POINT ( 'NONE',  ( -12.69999999999999900, 0.0000000000000000000, 1.500000000000000000 ) ) ;
#164 = CALENDAR_DATE ( 2019, 3, 1 ) ;
#165 = APPLICATION_CONTEXT ( 'configuration controlled 3d designs of mechanical parts and assemblies' ) ;
#166 = DIRECTION ( 'NONE',  ( 1.000000000000000000, 0.0000000000000000000, 0.0000000000000000000 ) ) ;
#167 = DIRECTION ( 'NONE',  ( 1.000000000000000000, 0.0000000000000000000, 0.0000000000000000000 ) ) ;
#168 = CC_DESIGN_APPROVAL ( #56, ( #40 ) ) ;
#169 = ORIENTED_EDGE ( 'NONE', *, *, #139, .F. ) ;
#170 = PRODUCT_DEFINITION_SHAPE ( 'NONE', 'NONE',  #37 ) ;
#171 = COORDINATED_UNIVERSAL_TIME_OFFSET ( 5, 0, .BEHIND. ) ;
#172 = AXIS2_PLACEMENT_3D ( 'NONE', #88, #124, #50 ) ;
#173 = VERTEX_POINT ( 'NONE', #99 ) ;
#174 = DATE_AND_TIME ( #136, #85 ) ;
#175 = DIRECTION ( 'NONE',  ( -0.0000000000000000000, -0.0000000000000000000, -1.000000000000000000 ) ) ;
ENDSEC;
END-ISO-10303-21;
