ISO-10303-21;
HEADER;
FILE_DESCRIPTION (( 'STEP AP214' ),
    '1' );
FILE_NAME ('4795-E0W.STEP',
    '2009-12-21T17:09:29',
    ( ' ' ),
    ( ' ' ),
    'SwSTEP 2.0',
    'SolidWorks 2009',
    '' );
FILE_SCHEMA (( 'AUTOMOTIVE_DESIGN' ));
ENDSEC;

DATA;
#1 = PRODUCT ( '4795-E0W', '4795-E0W', '', ( #10 ) ) ;
#2 = PRODUCT_RELATED_PRODUCT_CATEGORY ( 'part', '', ( #1 ) ) ;
#3 = PRODUCT_DEFINITION_FORMATION_WITH_SPECIFIED_SOURCE ( 'ANY', '', #1, .NOT_KNOWN. ) ;
#4 = PRODUCT_DEFINITION ( 'UNKNOWN', '', #3, #6 ) ;
#5 = APPLICATION_CONTEXT ( 'automotive_design' ) ;
#6 = PRODUCT_DEFINITION_CONTEXT ( 'detailed design', #5, 'design' ) ;
#7 = APPLICATION_PROTOCOL_DEFINITION ( 'draft international standard', 'automotive_design', 1998, #5 ) ;
#8 = APPLICATION_CONTEXT ( 'automotive_design' ) ;
#9 = PRODUCT_DEFINITION_SHAPE ( 'NONE', 'NONE',  #4 ) ;
#10 = PRODUCT_CONTEXT ( 'NONE', #8, 'mechanical' ) ;
#11 = APPLICATION_PROTOCOL_DEFINITION ( 'draft international standard', 'automotive_design', 1998, #8 ) ;
#12 = SHAPE_DEFINITION_REPRESENTATION ( #9, #249 ) ;
#13 = ORIENTED_EDGE ( 'NONE', *, *, #38, .T. ) ;
#14 = ORIENTED_EDGE ( 'NONE', *, *, #38, .F. ) ;
#15 = ADVANCED_FACE ( 'NONE', ( #66 ), #112, .T. ) ;
#16 = ORIENTED_EDGE ( 'NONE', *, *, #20, .F. ) ;
#17 = VERTEX_POINT ( 'NONE', #69 ) ;
#18 = EDGE_LOOP ( 'NONE', ( #56, #60, #57, #51 ) ) ;
#19 = VERTEX_POINT ( 'NONE', #113 ) ;
#20 = EDGE_CURVE ( 'NONE', #31, #19, #99, .T. ) ;
#21 = EDGE_CURVE ( 'NONE', #28, #19, #98, .T. ) ;
#22 = ORIENTED_EDGE ( 'NONE', *, *, #20, .T. ) ;
#23 = ORIENTED_EDGE ( 'NONE', *, *, #50, .T. ) ;
#24 = ORIENTED_EDGE ( 'NONE', *, *, #35, .F. ) ;
#25 = ORIENTED_EDGE ( 'NONE', *, *, #26, .F. ) ;
#26 = EDGE_CURVE ( 'NONE', #19, #47, #103, .T. ) ;
#27 = EDGE_LOOP ( 'NONE', ( #65, #22, #32, #24, #14 ) ) ;
#28 = VERTEX_POINT ( 'NONE', #104 ) ;
#29 = ORIENTED_EDGE ( 'NONE', *, *, #58, .F. ) ;
#30 = EDGE_LOOP ( 'NONE', ( #16, #23, #13, #29, #25 ) ) ;
#31 = VERTEX_POINT ( 'NONE', #107 ) ;
#32 = ORIENTED_EDGE ( 'NONE', *, *, #21, .F. ) ;
#33 = CLOSED_SHELL ( 'NONE', ( #41, #36, #53, #34, #15 ) ) ;
#34 = ADVANCED_FACE ( 'NONE', ( #106 ), #132, .F. ) ;
#35 = EDGE_CURVE ( 'NONE', #17, #28, #141, .T. ) ;
#36 = ADVANCED_FACE ( 'NONE', ( #162 ), #166, .F. ) ;
#37 =( NAMED_UNIT ( * ) SI_UNIT ( $, .STERADIAN. ) SOLID_ANGLE_UNIT ( ) );
#38 = EDGE_CURVE ( 'NONE', #67, #17, #169, .T. ) ;
#39 =( NAMED_UNIT ( * ) PLANE_ANGLE_UNIT ( ) SI_UNIT ( $, .RADIAN. ) );
#40 =( GEOMETRIC_REPRESENTATION_CONTEXT ( 3 ) GLOBAL_UNCERTAINTY_ASSIGNED_CONTEXT ( ( #237 ) ) GLOBAL_UNIT_ASSIGNED_CONTEXT ( ( #196, #202, #201 ) ) REPRESENTATION_CONTEXT ( 'NONE', 'WORKASPACE' ) );
#41 = ADVANCED_FACE ( 'NONE', ( #139 ), #219, .T. ) ;
#42 =( LENGTH_UNIT ( ) NAMED_UNIT ( * ) SI_UNIT ( .MILLI., .METRE. ) );
#43 = EDGE_LOOP ( 'NONE', ( #45, #49 ) ) ;
#44 = ORIENTED_EDGE ( 'NONE', *, *, #59, .F. ) ;
#45 = ORIENTED_EDGE ( 'NONE', *, *, #62, .F. ) ;
#46 = VERTEX_POINT ( 'NONE', #227 ) ;
#47 = VERTEX_POINT ( 'NONE', #184 ) ;
#48 = ORIENTED_EDGE ( 'NONE', *, *, #26, .T. ) ;
#49 = ORIENTED_EDGE ( 'NONE', *, *, #50, .F. ) ;
#50 = EDGE_CURVE ( 'NONE', #31, #67, #236, .T. ) ;
#51 = ORIENTED_EDGE ( 'NONE', *, *, #35, .T. ) ;
#52 = EDGE_LOOP ( 'NONE', ( #44, #54, #55, #48 ) ) ;
#53 = ADVANCED_FACE ( 'NONE', ( #194 ), #185, .F. ) ;
#54 = ORIENTED_EDGE ( 'NONE', *, *, #61, .T. ) ;
#55 = ORIENTED_EDGE ( 'NONE', *, *, #21, .T. ) ;
#56 = ORIENTED_EDGE ( 'NONE', *, *, #61, .F. ) ;
#57 = ORIENTED_EDGE ( 'NONE', *, *, #58, .T. ) ;
#58 = EDGE_CURVE ( 'NONE', #47, #17, #199, .T. ) ;
#59 = EDGE_CURVE ( 'NONE', #46, #47, #193, .T. ) ;
#60 = ORIENTED_EDGE ( 'NONE', *, *, #59, .T. ) ;
#61 = EDGE_CURVE ( 'NONE', #46, #28, #230, .T. ) ;
#62 = EDGE_CURVE ( 'NONE', #67, #31, #203, .T. ) ;
#63 = COLOUR_RGB ( '',0.9568627450980391500, 0.9490196078431372100, 0.9607843137254902200 ) ;
#64 = UNCERTAINTY_MEASURE_WITH_UNIT (LENGTH_MEASURE( 1.000000000000000100E-005 ), #42, 'distance_accuracy_value', 'NONE');
#65 = ORIENTED_EDGE ( 'NONE', *, *, #62, .T. ) ;
#66 = FACE_OUTER_BOUND ( 'NONE', #30, .T. ) ;
#67 = VERTEX_POINT ( 'NONE', #174 ) ;
#68 = MANIFOLD_SOLID_BREP ( 'NONE', #33 ) ;
#69 = CARTESIAN_POINT ( 'NONE',  ( 25.39999999999999900, 0.0000000000000000000, 6.518919145206439200 ) ) ;
#70 = DIRECTION ( 'NONE',  ( 1.000000000000000000, 0.0000000000000000000, 0.0000000000000000000 ) ) ;
#71 = DIRECTION ( 'NONE',  ( -0.0000000000000000000, -0.0000000000000000000, 1.000000000000000000 ) ) ;
#72 = CARTESIAN_POINT ( 'NONE',  ( 0.0000000000000000000, 0.0000000000000000000, 4.248234125222885500 ) ) ;
#73 = AXIS2_PLACEMENT_3D ( 'NONE', #93, #92, #91 ) ;
#74 = DIRECTION ( 'NONE',  ( -0.0000000000000000000, -0.0000000000000000000, 1.000000000000000000 ) ) ;
#75 = VECTOR ( 'NONE', #74, 1000.000000000000000 ) ;
#76 = CARTESIAN_POINT ( 'NONE',  ( -25.39999999999999900, 3.110500138708838200E-015, 4.248234125222885500 ) ) ;
#77 =( NAMED_UNIT ( * ) PLANE_ANGLE_UNIT ( ) SI_UNIT ( $, .RADIAN. ) );
#78 = STYLED_ITEM ( 'NONE', ( #79 ), #34 ) ;
#79 = PRESENTATION_STYLE_ASSIGNMENT (( #80 ) ) ;
#80 = SURFACE_STYLE_USAGE ( .BOTH. , #81 ) ;
#81 = SURFACE_SIDE_STYLE ('',( #82 ) ) ;
#82 = SURFACE_STYLE_FILL_AREA ( #83 ) ;
#83 = FILL_AREA_STYLE ('',( #105 ) ) ;
#84 = COLOUR_RGB ( '',0.9568627450980391500, 0.9490196078431372100, 0.9607843137254902200 ) ;
#85 = FILL_AREA_STYLE_COLOUR ( '', #63 ) ;
#86 =( NAMED_UNIT ( * ) SI_UNIT ( $, .STERADIAN. ) SOLID_ANGLE_UNIT ( ) );
#87 =( LENGTH_UNIT ( ) NAMED_UNIT ( * ) SI_UNIT ( .MILLI., .METRE. ) );
#88 = MECHANICAL_DESIGN_GEOMETRIC_PRESENTATION_REPRESENTATION (  '', ( #78 ), #164 ) ;
#89 = PRESENTATION_LAYER_ASSIGNMENT (  '', '', ( #78 ) ) ;
#90 =( GEOMETRIC_REPRESENTATION_CONTEXT ( 3 ) GLOBAL_UNCERTAINTY_ASSIGNED_CONTEXT ( ( #120 ) ) GLOBAL_UNIT_ASSIGNED_CONTEXT ( ( #96, #77, #86 ) ) REPRESENTATION_CONTEXT ( 'NONE', 'WORKASPACE' ) );
#91 = DIRECTION ( 'NONE',  ( 1.000000000000000000, 0.0000000000000000000, 0.0000000000000000000 ) ) ;
#92 = DIRECTION ( 'NONE',  ( -0.0000000000000000000, -0.0000000000000000000, 1.000000000000000000 ) ) ;
#93 = CARTESIAN_POINT ( 'NONE',  ( 0.0000000000000000000, 0.0000000000000000000, 6.518919145206439200 ) ) ;
#94 = FILL_AREA_STYLE ('',( #85 ) ) ;
#95 = SURFACE_SIDE_STYLE ('',( #118 ) ) ;
#96 =( LENGTH_UNIT ( ) NAMED_UNIT ( * ) SI_UNIT ( .MILLI., .METRE. ) );
#97 = STYLED_ITEM ( 'NONE', ( #117 ), #15 ) ;
#98 = CIRCLE ( 'NONE', #73, 25.39999999999999900 ) ;
#99 = LINE ( 'NONE', #76, #75 ) ;
#100 = AXIS2_PLACEMENT_3D ( 'NONE', #72, #71, #70 ) ;
#101 = UNCERTAINTY_MEASURE_WITH_UNIT (LENGTH_MEASURE( 1.000000000000000100E-005 ), #87, 'distance_accuracy_value', 'NONE');
#102 = AXIS2_PLACEMENT_3D ( 'NONE', #110, #109, #108 ) ;
#103 = CIRCLE ( 'NONE', #102, 25.39999999999999900 ) ;
#104 = CARTESIAN_POINT ( 'NONE',  ( 0.0000000000000000000, 25.39999999999999900, 6.518919145206438300 ) ) ;
#105 = FILL_AREA_STYLE_COLOUR ( '', #84 ) ;
#106 = FACE_OUTER_BOUND ( 'NONE', #43, .T. ) ;
#107 = CARTESIAN_POINT ( 'NONE',  ( -25.39999999999999900, 3.110500138708838200E-015, -6.518919145206439200 ) ) ;
#108 = DIRECTION ( 'NONE',  ( 1.000000000000000000, 0.0000000000000000000, 0.0000000000000000000 ) ) ;
#109 = DIRECTION ( 'NONE',  ( -0.0000000000000000000, -0.0000000000000000000, 1.000000000000000000 ) ) ;
#110 = CARTESIAN_POINT ( 'NONE',  ( 0.0000000000000000000, 0.0000000000000000000, 6.518919145206439200 ) ) ;
#111 = PRESENTATION_LAYER_ASSIGNMENT (  '', '', ( #97 ) ) ;
#112 = CYLINDRICAL_SURFACE ( 'NONE', #100, 25.39999999999999900 ) ;
#113 = CARTESIAN_POINT ( 'NONE',  ( -25.39999999999999900, 3.110500138708838200E-015, 6.518919145206439200 ) ) ;
#114 = SURFACE_STYLE_USAGE ( .BOTH. , #95 ) ;
#115 =( NAMED_UNIT ( * ) SI_UNIT ( $, .STERADIAN. ) SOLID_ANGLE_UNIT ( ) );
#116 =( NAMED_UNIT ( * ) PLANE_ANGLE_UNIT ( ) SI_UNIT ( $, .RADIAN. ) );
#117 = PRESENTATION_STYLE_ASSIGNMENT (( #114 ) ) ;
#118 = SURFACE_STYLE_FILL_AREA ( #94 ) ;
#119 = MECHANICAL_DESIGN_GEOMETRIC_PRESENTATION_REPRESENTATION (  '', ( #97 ), #90 ) ;
#120 = UNCERTAINTY_MEASURE_WITH_UNIT (LENGTH_MEASURE( 1.000000000000000100E-005 ), #96, 'distance_accuracy_value', 'NONE');
#121 = PRESENTATION_LAYER_ASSIGNMENT (  '', '', ( #154 ) ) ;
#122 = FILL_AREA_STYLE_COLOUR ( '', #156 ) ;
#123 = PRESENTATION_STYLE_ASSIGNMENT (( #127 ) ) ;
#124 = DIRECTION ( 'NONE',  ( 1.000000000000000000, 0.0000000000000000000, 0.0000000000000000000 ) ) ;
#125 = DIRECTION ( 'NONE',  ( -0.0000000000000000000, -0.0000000000000000000, 1.000000000000000000 ) ) ;
#126 = AXIS2_PLACEMENT_3D ( 'NONE', #129, #130, #124 ) ;
#127 = SURFACE_STYLE_USAGE ( .BOTH. , #171 ) ;
#128 = DIRECTION ( 'NONE',  ( 1.000000000000000000, 0.0000000000000000000, 0.0000000000000000000 ) ) ;
#129 = CARTESIAN_POINT ( 'NONE',  ( 0.0000000000000000000, 6.429395695523603200E-016, -6.518919145206439200 ) ) ;
#130 = DIRECTION ( 'NONE',  ( 0.0000000000000000000, -0.0000000000000000000, 1.000000000000000000 ) ) ;
#131 =( LENGTH_UNIT ( ) NAMED_UNIT ( * ) SI_UNIT ( .MILLI., .METRE. ) );
#132 = PLANE ( 'NONE',  #126 ) ;
#133 = CARTESIAN_POINT ( 'NONE',  ( 0.0000000000000000000, 0.0000000000000000000, 6.518919145206439200 ) ) ;
#134 = SURFACE_STYLE_USAGE ( .BOTH. , #135 ) ;
#135 = SURFACE_SIDE_STYLE ('',( #136 ) ) ;
#136 = SURFACE_STYLE_FILL_AREA ( #137 ) ;
#137 = FILL_AREA_STYLE ('',( #170 ) ) ;
#138 = COLOUR_RGB ( '',0.9568627450980391500, 0.9490196078431372100, 0.9607843137254902200 ) ;
#139 = FACE_OUTER_BOUND ( 'NONE', #27, .T. ) ;
#140 = VECTOR ( 'NONE', #167, 1000.000000000000000 ) ;
#141 = CIRCLE ( 'NONE', #155, 25.39999999999999900 ) ;
#142 = DIRECTION ( 'NONE',  ( 0.0000000000000000000, 1.000000000000000000, 0.0000000000000000000 ) ) ;
#143 = DIRECTION ( 'NONE',  ( -1.000000000000000000, 0.0000000000000000000, 0.0000000000000000000 ) ) ;
#144 = CARTESIAN_POINT ( 'NONE',  ( 0.0000000000000000000, 0.0000000000000000000, 35.57108085479356400 ) ) ;
#145 = AXIS2_PLACEMENT_3D ( 'NONE', #144, #143, #142 ) ;
#146 = MECHANICAL_DESIGN_GEOMETRIC_PRESENTATION_REPRESENTATION (  '', ( #154 ), #165 ) ;
#147 =( NAMED_UNIT ( * ) PLANE_ANGLE_UNIT ( ) SI_UNIT ( $, .RADIAN. ) );
#148 = FILL_AREA_STYLE ('',( #122 ) ) ;
#149 = SURFACE_STYLE_FILL_AREA ( #148 ) ;
#150 =( NAMED_UNIT ( * ) PLANE_ANGLE_UNIT ( ) SI_UNIT ( $, .RADIAN. ) );
#151 =( LENGTH_UNIT ( ) NAMED_UNIT ( * ) SI_UNIT ( .MILLI., .METRE. ) );
#152 = UNCERTAINTY_MEASURE_WITH_UNIT (LENGTH_MEASURE( 1.000000000000000100E-005 ), #151, 'distance_accuracy_value', 'NONE');
#153 =( NAMED_UNIT ( * ) SI_UNIT ( $, .STERADIAN. ) SOLID_ANGLE_UNIT ( ) );
#154 = STYLED_ITEM ( 'NONE', ( #123 ), #36 ) ;
#155 = AXIS2_PLACEMENT_3D ( 'NONE', #133, #125, #128 ) ;
#156 = COLOUR_RGB ( '',0.9568627450980391500, 0.9490196078431372100, 0.9607843137254902200 ) ;
#157 = MECHANICAL_DESIGN_GEOMETRIC_PRESENTATION_REPRESENTATION (  '', ( #159 ), #217 ) ;
#158 = PRESENTATION_LAYER_ASSIGNMENT (  '', '', ( #159 ) ) ;
#159 = STYLED_ITEM ( 'NONE', ( #160 ), #41 ) ;
#160 = PRESENTATION_STYLE_ASSIGNMENT (( #134 ) ) ;
#161 =( NAMED_UNIT ( * ) SI_UNIT ( $, .STERADIAN. ) SOLID_ANGLE_UNIT ( ) );
#162 = FACE_OUTER_BOUND ( 'NONE', #18, .T. ) ;
#163 = UNCERTAINTY_MEASURE_WITH_UNIT (LENGTH_MEASURE( 1.000000000000000100E-005 ), #131, 'distance_accuracy_value', 'NONE');
#164 =( GEOMETRIC_REPRESENTATION_CONTEXT ( 3 ) GLOBAL_UNCERTAINTY_ASSIGNED_CONTEXT ( ( #101 ) ) GLOBAL_UNIT_ASSIGNED_CONTEXT ( ( #87, #116, #115 ) ) REPRESENTATION_CONTEXT ( 'NONE', 'WORKASPACE' ) );
#165 =( GEOMETRIC_REPRESENTATION_CONTEXT ( 3 ) GLOBAL_UNCERTAINTY_ASSIGNED_CONTEXT ( ( #163 ) ) GLOBAL_UNIT_ASSIGNED_CONTEXT ( ( #131, #147, #161 ) ) REPRESENTATION_CONTEXT ( 'NONE', 'WORKASPACE' ) );
#166 = SPHERICAL_SURFACE ( 'NONE', #145, 38.59000000000000300 ) ;
#167 = DIRECTION ( 'NONE',  ( -0.0000000000000000000, -0.0000000000000000000, 1.000000000000000000 ) ) ;
#168 = CARTESIAN_POINT ( 'NONE',  ( 25.39999999999999900, 0.0000000000000000000, 4.248234125222885500 ) ) ;
#169 = LINE ( 'NONE', #168, #140 ) ;
#170 = FILL_AREA_STYLE_COLOUR ( '', #138 ) ;
#171 = SURFACE_SIDE_STYLE ('',( #149 ) ) ;
#172 = FILL_AREA_STYLE_COLOUR ( '', #173 ) ;
#173 = COLOUR_RGB ( '',0.7960784313725489700, 0.8235294117647058400, 0.9372549019607843100 ) ;
#174 = CARTESIAN_POINT ( 'NONE',  ( 25.39999999999999900, 0.0000000000000000000, -6.518919145206439200 ) ) ;
#175 = DIRECTION ( 'NONE',  ( 1.000000000000000000, 0.0000000000000000000, 0.0000000000000000000 ) ) ;
#176 = DIRECTION ( 'NONE',  ( -0.0000000000000000000, -0.0000000000000000000, 1.000000000000000000 ) ) ;
#177 = AXIS2_PLACEMENT_3D ( 'NONE', #231, #176, #175 ) ;
#178 = DIRECTION ( 'NONE',  ( 1.000000000000000000, 0.0000000000000000000, 0.0000000000000000000 ) ) ;
#179 =( GEOMETRIC_REPRESENTATION_CONTEXT ( 3 ) GLOBAL_UNCERTAINTY_ASSIGNED_CONTEXT ( ( #218 ) ) GLOBAL_UNIT_ASSIGNED_CONTEXT ( ( #200, #189, #225 ) ) REPRESENTATION_CONTEXT ( 'NONE', 'WORKASPACE' ) );
#180 = CARTESIAN_POINT ( 'NONE',  ( 0.0000000000000000000, 0.0000000000000000000, 4.248234125222885500 ) ) ;
#181 = CARTESIAN_POINT ( 'NONE',  ( 0.0000000000000000000, 0.0000000000000000000, 35.57108085479356400 ) ) ;
#182 = CARTESIAN_POINT ( 'NONE',  ( 0.0000000000000000000, 0.0000000000000000000, -6.518919145206439200 ) ) ;
#183 = SURFACE_SIDE_STYLE ('',( #216 ) ) ;
#184 = CARTESIAN_POINT ( 'NONE',  ( -3.110500138708838200E-015, -25.39999999999999900, 6.518919145206438300 ) ) ;
#185 = SPHERICAL_SURFACE ( 'NONE', #215, 38.59000000000000300 ) ;
#186 = DIRECTION ( 'NONE',  ( 0.0000000000000000000, 1.000000000000000000, 0.0000000000000000000 ) ) ;
#187 = DIRECTION ( 'NONE',  ( -1.000000000000000000, 0.0000000000000000000, 0.0000000000000000000 ) ) ;
#188 = STYLED_ITEM ( 'NONE', ( #232 ), #53 ) ;
#189 =( NAMED_UNIT ( * ) PLANE_ANGLE_UNIT ( ) SI_UNIT ( $, .RADIAN. ) );
#190 = PRESENTATION_LAYER_ASSIGNMENT (  '', '', ( #188 ) ) ;
#191 = CARTESIAN_POINT ( 'NONE',  ( 0.0000000000000000000, 0.0000000000000000000, 35.57108085479356400 ) ) ;
#192 = AXIS2_PLACEMENT_3D ( 'NONE', #191, #222, #221 ) ;
#193 = CIRCLE ( 'NONE', #192, 38.59000000000000300 ) ;
#194 = FACE_OUTER_BOUND ( 'NONE', #52, .T. ) ;
#195 = SURFACE_STYLE_USAGE ( .BOTH. , #183 ) ;
#196 =( LENGTH_UNIT ( ) NAMED_UNIT ( * ) SI_UNIT ( .MILLI., .METRE. ) );
#197 = DIRECTION ( 'NONE',  ( 1.000000000000000000, 0.0000000000000000000, 0.0000000000000000000 ) ) ;
#198 = MECHANICAL_DESIGN_GEOMETRIC_PRESENTATION_REPRESENTATION (  '', ( #188 ), #179 ) ;
#199 = CIRCLE ( 'NONE', #240, 25.39999999999999900 ) ;
#200 =( LENGTH_UNIT ( ) NAMED_UNIT ( * ) SI_UNIT ( .MILLI., .METRE. ) );
#201 =( NAMED_UNIT ( * ) SI_UNIT ( $, .STERADIAN. ) SOLID_ANGLE_UNIT ( ) );
#202 =( NAMED_UNIT ( * ) PLANE_ANGLE_UNIT ( ) SI_UNIT ( $, .RADIAN. ) );
#203 = CIRCLE ( 'NONE', #177, 25.39999999999999900 ) ;
#204 = DIRECTION ( 'NONE',  ( 0.0000000000000000000, 0.0000000000000000000, -1.000000000000000000 ) ) ;
#205 = MECHANICAL_DESIGN_GEOMETRIC_PRESENTATION_REPRESENTATION (  '', ( #207 ), #40 ) ;
#206 = PRESENTATION_LAYER_ASSIGNMENT (  '', '', ( #207 ) ) ;
#207 = STYLED_ITEM ( 'NONE', ( #208 ), #68 ) ;
#208 = PRESENTATION_STYLE_ASSIGNMENT (( #209 ) ) ;
#209 = SURFACE_STYLE_USAGE ( .BOTH. , #210 ) ;
#210 = SURFACE_SIDE_STYLE ('',( #211 ) ) ;
#211 = SURFACE_STYLE_FILL_AREA ( #212 ) ;
#212 = FILL_AREA_STYLE ('',( #172 ) ) ;
#213 = FILL_AREA_STYLE ('',( #223 ) ) ;
#214 = DIRECTION ( 'NONE',  ( 1.000000000000000000, 0.0000000000000000000, 0.0000000000000000000 ) ) ;
#215 = AXIS2_PLACEMENT_3D ( 'NONE', #181, #187, #186 ) ;
#216 = SURFACE_STYLE_FILL_AREA ( #213 ) ;
#217 =( GEOMETRIC_REPRESENTATION_CONTEXT ( 3 ) GLOBAL_UNCERTAINTY_ASSIGNED_CONTEXT ( ( #152 ) ) GLOBAL_UNIT_ASSIGNED_CONTEXT ( ( #151, #150, #153 ) ) REPRESENTATION_CONTEXT ( 'NONE', 'WORKASPACE' ) );
#218 = UNCERTAINTY_MEASURE_WITH_UNIT (LENGTH_MEASURE( 1.000000000000000100E-005 ), #200, 'distance_accuracy_value', 'NONE');
#219 = CYLINDRICAL_SURFACE ( 'NONE', #226, 25.39999999999999900 ) ;
#220 = CARTESIAN_POINT ( 'NONE',  ( 0.0000000000000000000, 0.0000000000000000000, 35.57108085479356400 ) ) ;
#221 = DIRECTION ( 'NONE',  ( -1.224606353822377300E-016, -1.000000000000000000, 0.0000000000000000000 ) ) ;
#222 = DIRECTION ( 'NONE',  ( -1.000000000000000000, 1.224606353822377300E-016, 0.0000000000000000000 ) ) ;
#223 = FILL_AREA_STYLE_COLOUR ( '', #233 ) ;
#224 = DIRECTION ( 'NONE',  ( -0.0000000000000000000, -0.0000000000000000000, 1.000000000000000000 ) ) ;
#225 =( NAMED_UNIT ( * ) SI_UNIT ( $, .STERADIAN. ) SOLID_ANGLE_UNIT ( ) );
#226 = AXIS2_PLACEMENT_3D ( 'NONE', #180, #235, #214 ) ;
#227 = CARTESIAN_POINT ( 'NONE',  ( 0.0000000000000000000, 2.362877959700277300E-015, -3.018919145206439200 ) ) ;
#228 = DIRECTION ( 'NONE',  ( 1.000000000000000000, 0.0000000000000000000, 0.0000000000000000000 ) ) ;
#229 = AXIS2_PLACEMENT_3D ( 'NONE', #220, #228, #204 ) ;
#230 = CIRCLE ( 'NONE', #229, 38.59000000000000300 ) ;
#231 = CARTESIAN_POINT ( 'NONE',  ( 0.0000000000000000000, 0.0000000000000000000, -6.518919145206439200 ) ) ;
#232 = PRESENTATION_STYLE_ASSIGNMENT (( #195 ) ) ;
#233 = COLOUR_RGB ( '',0.9568627450980391500, 0.9490196078431372100, 0.9607843137254902200 ) ;
#234 = AXIS2_PLACEMENT_3D ( 'NONE', #182, #224, #178 ) ;
#235 = DIRECTION ( 'NONE',  ( -0.0000000000000000000, -0.0000000000000000000, 1.000000000000000000 ) ) ;
#236 = CIRCLE ( 'NONE', #234, 25.39999999999999900 ) ;
#237 = UNCERTAINTY_MEASURE_WITH_UNIT (LENGTH_MEASURE( 1.000000000000000100E-005 ), #196, 'distance_accuracy_value', 'NONE');
#238 = DIRECTION ( 'NONE',  ( -0.0000000000000000000, -0.0000000000000000000, 1.000000000000000000 ) ) ;
#239 = CARTESIAN_POINT ( 'NONE',  ( 0.0000000000000000000, 0.0000000000000000000, 6.518919145206439200 ) ) ;
#240 = AXIS2_PLACEMENT_3D ( 'NONE', #239, #238, #197 ) ;
#241 = SURFACE_STYLE_USAGE ( .BOTH. , #251 ) ;
#242 = COLOUR_RGB ( '',0.7960784313725489700, 0.8235294117647058400, 0.9372549019607843100 ) ;
#243 = UNCERTAINTY_MEASURE_WITH_UNIT (LENGTH_MEASURE( 1.000000000000000100E-005 ), #253, 'distance_accuracy_value', 'NONE');
#244 = CARTESIAN_POINT ( 'NONE',  ( 0.0000000000000000000, 0.0000000000000000000, 0.0000000000000000000 ) ) ;
#245 = SURFACE_STYLE_FILL_AREA ( #261 ) ;
#246 = FILL_AREA_STYLE_COLOUR ( '', #242 ) ;
#247 = PRESENTATION_LAYER_ASSIGNMENT (  '', '', ( #260 ) ) ;
#248 = MECHANICAL_DESIGN_GEOMETRIC_PRESENTATION_REPRESENTATION (  '', ( #260 ), #255 ) ;
#249 = ADVANCED_BREP_SHAPE_REPRESENTATION ( '4795-E0W', ( #68, #254 ), #257 ) ;
#250 = PRESENTATION_STYLE_ASSIGNMENT (( #241 ) ) ;
#251 = SURFACE_SIDE_STYLE ('',( #245 ) ) ;
#252 =( NAMED_UNIT ( * ) SI_UNIT ( $, .STERADIAN. ) SOLID_ANGLE_UNIT ( ) );
#253 =( LENGTH_UNIT ( ) NAMED_UNIT ( * ) SI_UNIT ( .MILLI., .METRE. ) );
#254 = AXIS2_PLACEMENT_3D ( 'NONE', #244, #259, #258 ) ;
#255 =( GEOMETRIC_REPRESENTATION_CONTEXT ( 3 ) GLOBAL_UNCERTAINTY_ASSIGNED_CONTEXT ( ( #243 ) ) GLOBAL_UNIT_ASSIGNED_CONTEXT ( ( #253, #256, #252 ) ) REPRESENTATION_CONTEXT ( 'NONE', 'WORKASPACE' ) );
#256 =( NAMED_UNIT ( * ) PLANE_ANGLE_UNIT ( ) SI_UNIT ( $, .RADIAN. ) );
#257 =( GEOMETRIC_REPRESENTATION_CONTEXT ( 3 ) GLOBAL_UNCERTAINTY_ASSIGNED_CONTEXT ( ( #64 ) ) GLOBAL_UNIT_ASSIGNED_CONTEXT ( ( #42, #39, #37 ) ) REPRESENTATION_CONTEXT ( 'NONE', 'WORKASPACE' ) );
#258 = DIRECTION ( 'NONE',  ( 1.000000000000000000, 0.0000000000000000000, 0.0000000000000000000 ) ) ;
#259 = DIRECTION ( 'NONE',  ( 0.0000000000000000000, 0.0000000000000000000, 1.000000000000000000 ) ) ;
#260 = STYLED_ITEM ( 'NONE', ( #250 ), #249 ) ;
#261 = FILL_AREA_STYLE ('',( #246 ) ) ;
ENDSEC;
END-ISO-10303-21;
