ISO-10303-21;
HEADER;
FILE_DESCRIPTION (( 'STEP AP203' ),
    '1' );
FILE_NAME ('TTN162748-E0W.STEP',
    '2019-10-24T14:05:06',
    ( '' ),
    ( '' ),
    'SwSTEP 2.0',
    'SolidWorks 2018',
    '' );
FILE_SCHEMA (( 'CONFIG_CONTROL_DESIGN' ));
ENDSEC;

DATA;
#1 = PERSON_AND_ORGANIZATION_ROLE ( 'creator' ) ;
#2 = VERTEX_POINT ( 'NONE', #242 ) ;
#3 = APPROVAL_DATE_TIME ( #198, #240 ) ;
#4 = APPROVAL_STATUS ( 'not_yet_approved' ) ;
#5 = ORIENTED_EDGE ( 'NONE', *, *, #187, .T. ) ;
#6 = CC_DESIGN_APPROVAL ( #195, ( #210 ) ) ;
#7 = PERSON_AND_ORGANIZATION_ROLE ( 'creator' ) ;
#8 = EDGE_LOOP ( 'NONE', ( #202, #136, #99, #108 ) ) ;
#9 = ORIENTED_EDGE ( 'NONE', *, *, #40, .F. ) ;
#10 = CC_DESIGN_APPROVAL ( #117, ( #246 ) ) ;
#11 = CARTESIAN_POINT ( 'NONE',  ( 0.5748017616236489324, 1.132069078809651019, 2.065768158587025560 ) ) ;
#12 = CIRCLE ( 'NONE', #145, 0.9499999999999990674 ) ;
#13 = AXIS2_PLACEMENT_3D ( 'NONE', #148, #282, #307 ) ;
#14 = DIRECTION ( 'NONE',  ( 1.000000000000000000, 0.0000000000000000000, 0.0000000000000000000 ) ) ;
#15 = VECTOR ( 'NONE', #285, 1000.000000000000000 ) ;
#16 = EDGE_LOOP ( 'NONE', ( #308, #252, #178, #280 ) ) ;
#17 = COORDINATED_UNIVERSAL_TIME_OFFSET ( 5, 0, .BEHIND. ) ;
#18 = FACE_OUTER_BOUND ( 'NONE', #302, .T. ) ;
#19 = DIRECTION ( 'NONE',  ( -0.0000000000000000000, -0.0000000000000000000, 1.000000000000000000 ) ) ;
#20 = CARTESIAN_POINT ( 'NONE',  ( 0.5748017616236489324, 1.132069078809651019, 1.968924629582127217 ) ) ;
#21 = VERTEX_POINT ( 'NONE', #112 ) ;
#22 = CARTESIAN_POINT ( 'NONE',  ( 0.5748017616236489324, 2.082069078809650531, 1.968924629582127217 ) ) ;
#23 = DESIGN_CONTEXT ( 'detailed design', #78, 'design' ) ;
#24 = DIRECTION ( 'NONE',  ( 1.000000000000000000, 0.0000000000000000000, 0.0000000000000000000 ) ) ;
#25 = VERTEX_POINT ( 'NONE', #278 ) ;
#26 = DIRECTION ( 'NONE',  ( 0.0000000000000000000, 0.0000000000000000000, -1.000000000000000000 ) ) ;
#27 = CIRCLE ( 'NONE', #276, 4.708000000000000185 ) ;
#28 = VECTOR ( 'NONE', #306, 1000.000000000000000 ) ;
#29 = CARTESIAN_POINT ( 'NONE',  ( 0.5748017616236489324, 1.132069078809651019, 2.065768158587025560 ) ) ;
#30 = PRODUCT ( 'TTN162748-E0W', 'TTN162748-E0W', '', ( #295 ) ) ;
#31 = AXIS2_PLACEMENT_3D ( 'NONE', #56, #114, #143 ) ;
#32 = PERSON_AND_ORGANIZATION ( #144, #305 ) ;
#33 = CYLINDRICAL_SURFACE ( 'NONE', #261, 1.000000000000000000 ) ;
#34 = CARTESIAN_POINT ( 'NONE',  ( 0.5748017616236489324, 1.132069078809651019, 1.918924629582127173 ) ) ;
#35 = ORIENTED_EDGE ( 'NONE', *, *, #40, .T. ) ;
#36 = APPROVAL_PERSON_ORGANIZATION ( #32, #117, #216 ) ;
#37 = CIRCLE ( 'NONE', #221, 1.000000000000000000 ) ;
#38 = EDGE_CURVE ( 'NONE', #180, #53, #292, .T. ) ;
#39 = ADVANCED_FACE ( 'NONE', ( #199 ), #33, .T. ) ;
#40 = EDGE_CURVE ( 'NONE', #53, #80, #289, .T. ) ;
#41 = CARTESIAN_POINT ( 'NONE',  ( 0.5748017616236489324, 1.132069078809651019, 1.115768158587025383 ) ) ;
#42 = ORIENTED_EDGE ( 'NONE', *, *, #231, .F. ) ;
#43 = PERSON_AND_ORGANIZATION ( #144, #305 ) ;
#44 = CARTESIAN_POINT ( 'NONE',  ( 0.5748017616236489324, 1.132069078809651019, -2.642231841412975069 ) ) ;
#45 = ADVANCED_FACE ( 'NONE', ( #259 ), #226, .T. ) ;
#46 = DIRECTION ( 'NONE',  ( 1.000000000000000000, 0.0000000000000000000, 0.0000000000000000000 ) ) ;
#47 = ADVANCED_FACE ( 'NONE', ( #229 ), #241, .T. ) ;
#48 = DIRECTION ( 'NONE',  ( 1.000000000000000000, 0.0000000000000000000, 0.0000000000000000000 ) ) ;
#49 = CARTESIAN_POINT ( 'NONE',  ( 1.574801761623648932, 1.132069078809651241, 1.918924629582127173 ) ) ;
#50 = AXIS2_PLACEMENT_3D ( 'NONE', #314, #267, #159 ) ;
#51 = APPLICATION_PROTOCOL_DEFINITION ( 'international standard', 'config_control_design', 1994, #78 ) ;
#52 = CALENDAR_DATE ( 2019, 24, 10 ) ;
#53 = VERTEX_POINT ( 'NONE', #61 ) ;
#54 = PERSON_AND_ORGANIZATION_ROLE ( 'classification_officer' ) ;
#55 = AXIS2_PLACEMENT_3D ( 'NONE', #209, #155, #317 ) ;
#56 = CARTESIAN_POINT ( 'NONE',  ( 0.5748017616236489324, 1.132069078809651019, 1.918924629582127173 ) ) ;
#57 = UNCERTAINTY_MEASURE_WITH_UNIT (LENGTH_MEASURE( 1.000000000000000082E-05 ), #87, 'distance_accuracy_value', 'NONE');
#58 = CC_DESIGN_DATE_AND_TIME_ASSIGNMENT ( #301, #169, ( #244 ) ) ;
#59 = PERSON_AND_ORGANIZATION ( #144, #305 ) ;
#60 = CARTESIAN_POINT ( 'NONE',  ( -0.4251982383763511231, 1.132069078809651019, 1.918924629582127173 ) ) ;
#61 = CARTESIAN_POINT ( 'NONE',  ( -0.3751982383763501350, 1.132069078809651019, 1.968924629582127217 ) ) ;
#62 = DIRECTION ( 'NONE',  ( -0.0000000000000000000, -0.0000000000000000000, 1.000000000000000000 ) ) ;
#63 = VERTEX_POINT ( 'NONE', #172 ) ;
#64 = EDGE_CURVE ( 'NONE', #25, #63, #106, .T. ) ;
#65 = LINE ( 'NONE', #86, #264 ) ;
#66 = CONICAL_SURFACE ( 'NONE', #50, 1.000000000000000000, 0.7853981633974439491 ) ;
#67 = AXIS2_PLACEMENT_3D ( 'NONE', #232, #72, #255 ) ;
#68 = VERTEX_POINT ( 'NONE', #173 ) ;
#69 = COORDINATED_UNIVERSAL_TIME_OFFSET ( 5, 0, .BEHIND. ) ;
#70 = CONICAL_SURFACE ( 'NONE', #55, 1.000000000000000000, 0.7853981633974439491 ) ;
#71 = DIRECTION ( 'NONE',  ( -1.151446657270076840E-16, -1.000000000000000000, 0.0000000000000000000 ) ) ;
#72 = DIRECTION ( 'NONE',  ( -1.000000000000000000, 0.0000000000000000000, 0.0000000000000000000 ) ) ;
#73 = EDGE_CURVE ( 'NONE', #63, #80, #37, .T. ) ;
#74 = PLANE ( 'NONE',  #120 ) ;
#75 = DIRECTION ( 'NONE',  ( 0.7071067811865444641, 0.0000000000000000000, 0.7071067811865505703 ) ) ;
#76 = ORIENTED_EDGE ( 'NONE', *, *, #313, .F. ) ;
#77 = DIRECTION ( 'NONE',  ( -1.000000000000000000, 0.0000000000000000000, 0.0000000000000000000 ) ) ;
#78 = APPLICATION_CONTEXT ( 'configuration controlled 3d designs of mechanical parts and assemblies' ) ;
#79 = APPROVAL_STATUS ( 'not_yet_approved' ) ;
#80 = VERTEX_POINT ( 'NONE', #279 ) ;
#81 = ADVANCED_FACE ( 'NONE', ( #160 ), #124, .T. ) ;
#82 = PERSON_AND_ORGANIZATION ( #144, #305 ) ;
#83 =( NAMED_UNIT ( * ) PLANE_ANGLE_UNIT ( ) SI_UNIT ( $, .RADIAN. ) );
#84 = EDGE_LOOP ( 'NONE', ( #42, #146, #270, #9, #91 ) ) ;
#85 = AXIS2_PLACEMENT_3D ( 'NONE', #298, #26, #166 ) ;
#86 = CARTESIAN_POINT ( 'NONE',  ( -0.4251982383763511231, 1.132069078809651241, 2.065768158587025560 ) ) ;
#87 =( LENGTH_UNIT ( ) NAMED_UNIT ( * ) SI_UNIT ( .MILLI., .METRE. ) );
#88 = CARTESIAN_POINT ( 'NONE',  ( 1.574801761623648932, 1.132069078809651019, 2.065768158587025560 ) ) ;
#89 = FACE_OUTER_BOUND ( 'NONE', #277, .T. ) ;
#90 = CARTESIAN_POINT ( 'NONE',  ( 0.5748017616236489324, 1.132069078809651019, 1.918924629582127173 ) ) ;
#91 = ORIENTED_EDGE ( 'NONE', *, *, #38, .F. ) ;
#92 = AXIS2_PLACEMENT_3D ( 'NONE', #186, #207, #103 ) ;
#93 = CALENDAR_DATE ( 2019, 24, 10 ) ;
#94 = LINE ( 'NONE', #95, #15 ) ;
#95 = CARTESIAN_POINT ( 'NONE',  ( -0.4251982383763511231, 1.132069078809651241, 1.115768158587025383 ) ) ;
#96 = EDGE_CURVE ( 'NONE', #53, #68, #110, .T. ) ;
#97 = EDGE_LOOP ( 'NONE', ( #164, #197, #263, #312 ) ) ;
#98 = LINE ( 'NONE', #294, #174 ) ;
#99 = ORIENTED_EDGE ( 'NONE', *, *, #269, .F. ) ;
#100 = AXIS2_PLACEMENT_3D ( 'NONE', #250, #77, #316 ) ;
#101 = CARTESIAN_POINT ( 'NONE',  ( 0.5748017616236489324, 1.132069078809651019, 1.115768158587025383 ) ) ;
#102 = SPHERICAL_SURFACE ( 'NONE', #100, 4.708000000000000185 ) ;
#103 = DIRECTION ( 'NONE',  ( 1.000000000000000000, 0.0000000000000000000, 0.0000000000000000000 ) ) ;
#104 = PERSON_AND_ORGANIZATION_ROLE ( 'design_supplier' ) ;
#105 = DIRECTION ( 'NONE',  ( 0.7071067811865544561, 8.659560562355016675E-17, -0.7071067811865406894 ) ) ;
#106 = LINE ( 'NONE', #88, #28 ) ;
#107 = AXIS2_PLACEMENT_3D ( 'NONE', #141, #243, #217 ) ;
#108 = ORIENTED_EDGE ( 'NONE', *, *, #290, .F. ) ;
#109 = CIRCLE ( 'NONE', #85, 0.9500000000000002887 ) ;
#110 = CIRCLE ( 'NONE', #13, 0.9499999999999990674 ) ;
#111 = EDGE_CURVE ( 'NONE', #2, #257, #94, .T. ) ;
#112 = CARTESIAN_POINT ( 'NONE',  ( 0.5748017616236489324, 1.132069078809651241, 2.065768158587025560 ) ) ;
#113 = CC_DESIGN_PERSON_AND_ORGANIZATION_ASSIGNMENT ( #43, #7, ( #244 ) ) ;
#114 = DIRECTION ( 'NONE',  ( 0.0000000000000000000, 0.0000000000000000000, -1.000000000000000000 ) ) ;
#115 = APPROVAL_DATE_TIME ( #147, #195 ) ;
#116 = DIRECTION ( 'NONE',  ( -1.000000000000000000, 0.0000000000000000000, 0.0000000000000000000 ) ) ;
#117 = APPROVAL ( #79, 'UNSPECIFIED' ) ;
#118 = PERSON_AND_ORGANIZATION ( #144, #305 ) ;
#119 = ORIENTED_EDGE ( 'NONE', *, *, #179, .F. ) ;
#120 = AXIS2_PLACEMENT_3D ( 'NONE', #185, #253, #254 ) ;
#121 = DIRECTION ( 'NONE',  ( 1.000000000000000000, 0.0000000000000000000, 0.0000000000000000000 ) ) ;
#122 = EDGE_CURVE ( 'NONE', #68, #21, #27, .T. ) ;
#123 = ADVANCED_FACE ( 'NONE', ( #266 ), #70, .T. ) ;
#124 = CYLINDRICAL_SURFACE ( 'NONE', #247, 1.000000000000000000 ) ;
#125 = CARTESIAN_POINT ( 'NONE',  ( 0.5748017616236489324, 1.132069078809651019, 1.918924629582127173 ) ) ;
#126 = AXIS2_PLACEMENT_3D ( 'NONE', #20, #206, #46 ) ;
#127 = CARTESIAN_POINT ( 'NONE',  ( -0.4251982383763511231, 1.132069078809651241, 1.115768158587025383 ) ) ;
#128 = ADVANCED_FACE ( 'NONE', ( #18 ), #66, .T. ) ;
#129 = LOCAL_TIME ( 10, 5, 5.000000000000000000, #17 ) ;
#130 = DIRECTION ( 'NONE',  ( 1.000000000000000000, 0.0000000000000000000, 0.0000000000000000000 ) ) ;
#131 = ADVANCED_FACE ( 'NONE', ( #89 ), #273, .T. ) ;
#132 = ORIENTED_EDGE ( 'NONE', *, *, #231, .T. ) ;
#133 = CC_DESIGN_PERSON_AND_ORGANIZATION_ASSIGNMENT ( #200, #1, ( #246 ) ) ;
#134 = APPROVAL_STATUS ( 'not_yet_approved' ) ;
#135 = APPROVAL_PERSON_ORGANIZATION ( #82, #195, #211 ) ;
#136 = ORIENTED_EDGE ( 'NONE', *, *, #111, .T. ) ;
#137 = AXIS2_PLACEMENT_3D ( 'NONE', #101, #19, #24 ) ;
#138 = CARTESIAN_POINT ( 'NONE',  ( 0.0000000000000000000, 0.0000000000000000000, 0.0000000000000000000 ) ) ;
#139 = DIRECTION ( 'NONE',  ( -0.0000000000000000000, -0.0000000000000000000, 1.000000000000000000 ) ) ;
#140 = ADVANCED_BREP_SHAPE_REPRESENTATION ( 'TTN162748-E0W', ( #225, #176 ), #196 ) ;
#141 = CARTESIAN_POINT ( 'NONE',  ( 0.5748017616236489324, 1.132069078809651019, 1.968924629582127217 ) ) ;
#142 = CC_DESIGN_SECURITY_CLASSIFICATION ( #210, ( #246 ) ) ;
#143 = DIRECTION ( 'NONE',  ( -1.000000000000000000, 0.0000000000000000000, 0.0000000000000000000 ) ) ;
#144 = PERSON ( 'UNSPECIFIED', 'UNSPECIFIED', 'UNSPECIFIED', ('UNSPECIFIED'), ('UNSPECIFIED'), ('UNSPECIFIED') ) ;
#145 = AXIS2_PLACEMENT_3D ( 'NONE', #161, #318, #121 ) ;
#146 = ORIENTED_EDGE ( 'NONE', *, *, #297, .T. ) ;
#147 = DATE_AND_TIME ( #281, #288 ) ;
#148 = CARTESIAN_POINT ( 'NONE',  ( 0.5748017616236489324, 1.132069078809651019, 1.968924629582127217 ) ) ;
#149 = CIRCLE ( 'NONE', #126, 0.9499999999999990674 ) ;
#150 = AXIS2_PLACEMENT_3D ( 'NONE', #41, #230, #296 ) ;
#151 = ORIENTED_EDGE ( 'NONE', *, *, #96, .F. ) ;
#152 = ORIENTED_EDGE ( 'NONE', *, *, #297, .F. ) ;
#153 = CALENDAR_DATE ( 2019, 24, 10 ) ;
#154 = CIRCLE ( 'NONE', #137, 1.000000000000000000 ) ;
#155 = DIRECTION ( 'NONE',  ( -0.0000000000000000000, -0.0000000000000000000, 1.000000000000000000 ) ) ;
#156 = ADVANCED_FACE ( 'NONE', ( #224 ), #74, .F. ) ;
#157 = AXIS2_PLACEMENT_3D ( 'NONE', #239, #130, #162 ) ;
#158 = DIRECTION ( 'NONE',  ( -0.0000000000000000000, -0.0000000000000000000, 1.000000000000000000 ) ) ;
#159 = DIRECTION ( 'NONE',  ( 1.000000000000000000, 0.0000000000000000000, 0.0000000000000000000 ) ) ;
#160 = FACE_OUTER_BOUND ( 'NONE', #97, .T. ) ;
#161 = CARTESIAN_POINT ( 'NONE',  ( 0.5748017616236489324, 1.132069078809651019, 1.968924629582127217 ) ) ;
#162 = DIRECTION ( 'NONE',  ( 0.0000000000000000000, 0.0000000000000000000, -1.000000000000000000 ) ) ;
#163 = CC_DESIGN_DATE_AND_TIME_ASSIGNMENT ( #228, #168, ( #210 ) ) ;
#164 = ORIENTED_EDGE ( 'NONE', *, *, #269, .T. ) ;
#165 = APPROVAL_PERSON_ORGANIZATION ( #183, #240, #275 ) ;
#166 = DIRECTION ( 'NONE',  ( 1.000000000000000000, 0.0000000000000000000, 0.0000000000000000000 ) ) ;
#167 = ORIENTED_EDGE ( 'NONE', *, *, #321, .F. ) ;
#168 = DATE_TIME_ROLE ( 'classification_date' ) ;
#169 = DATE_TIME_ROLE ( 'creation_date' ) ;
#170 = ORIENTED_EDGE ( 'NONE', *, *, #187, .F. ) ;
#171 = CC_DESIGN_APPROVAL ( #240, ( #244 ) ) ;
#172 = CARTESIAN_POINT ( 'NONE',  ( 1.574801761623648932, 1.132069078809651019, 1.918924629582127173 ) ) ;
#173 = CARTESIAN_POINT ( 'NONE',  ( 0.5748017616236488214, 0.1820690788096513968, 1.968924629582127217 ) ) ;
#174 = VECTOR ( 'NONE', #75, 1000.000000000000000 ) ;
#175 = DIRECTION ( 'NONE',  ( -0.0000000000000000000, -0.0000000000000000000, 1.000000000000000000 ) ) ;
#176 = AXIS2_PLACEMENT_3D ( 'NONE', #138, #274, #300 ) ;
#177 = ORIENTED_EDGE ( 'NONE', *, *, #64, .T. ) ;
#178 = ORIENTED_EDGE ( 'NONE', *, *, #284, .F. ) ;
#179 = EDGE_CURVE ( 'NONE', #80, #63, #193, .T. ) ;
#180 = VERTEX_POINT ( 'NONE', #22 ) ;
#181 = DIRECTION ( 'NONE',  ( -1.000000000000000000, 1.224646799147353207E-16, 0.0000000000000000000 ) ) ;
#182 = ADVANCED_FACE ( 'NONE', ( #215 ), #102, .T. ) ;
#183 = PERSON_AND_ORGANIZATION ( #144, #305 ) ;
#184 = EDGE_LOOP ( 'NONE', ( #167, #309, #177, #119 ) ) ;
#185 = CARTESIAN_POINT ( 'NONE',  ( 0.5748017616236489324, 1.132069078809651019, 1.065768158587025116 ) ) ;
#186 = CARTESIAN_POINT ( 'NONE',  ( 0.5748017616236489324, 1.132069078809651019, 1.065768158587025116 ) ) ;
#187 = EDGE_CURVE ( 'NONE', #68, #299, #149, .T. ) ;
#188 = LOCAL_TIME ( 10, 5, 5.000000000000000000, #248 ) ;
#189 = APPLICATION_CONTEXT ( 'configuration controlled 3d designs of mechanical parts and assemblies' ) ;
#190 = ORIENTED_EDGE ( 'NONE', *, *, #290, .T. ) ;
#191 = EDGE_CURVE ( 'NONE', #257, #25, #154, .T. ) ;
#192 = VECTOR ( 'NONE', #105, 1000.000000000000114 ) ;
#193 = CIRCLE ( 'NONE', #287, 1.000000000000000000 ) ;
#194 = SHAPE_DEFINITION_REPRESENTATION ( #303, #140 ) ;
#195 = APPROVAL ( #4, 'UNSPECIFIED' ) ;
#196 =( GEOMETRIC_REPRESENTATION_CONTEXT ( 3 ) GLOBAL_UNCERTAINTY_ASSIGNED_CONTEXT ( ( #57 ) ) GLOBAL_UNIT_ASSIGNED_CONTEXT ( ( #87, #83, #238 ) ) REPRESENTATION_CONTEXT ( 'NONE', 'WORKASPACE' ) );
#197 = ORIENTED_EDGE ( 'NONE', *, *, #321, .T. ) ;
#198 = DATE_AND_TIME ( #52, #251 ) ;
#199 = FACE_OUTER_BOUND ( 'NONE', #184, .T. ) ;
#200 = PERSON_AND_ORGANIZATION ( #144, #305 ) ;
#201 = EDGE_CURVE ( 'NONE', #2, #219, #204, .T. ) ;
#202 = ORIENTED_EDGE ( 'NONE', *, *, #201, .F. ) ;
#203 = LOCAL_TIME ( 10, 5, 5.000000000000000000, #291 ) ;
#204 = CIRCLE ( 'NONE', #92, 0.9500000000000002887 ) ;
#205 = CC_DESIGN_PERSON_AND_ORGANIZATION_ASSIGNMENT ( #118, #236, ( #30 ) ) ;
#206 = DIRECTION ( 'NONE',  ( -0.0000000000000000000, -0.0000000000000000000, 1.000000000000000000 ) ) ;
#207 = DIRECTION ( 'NONE',  ( 0.0000000000000000000, 0.0000000000000000000, -1.000000000000000000 ) ) ;
#208 = CLOSED_SHELL ( 'NONE', ( #123, #182, #47, #81, #156, #39, #45, #131, #128 ) ) ;
#209 = CARTESIAN_POINT ( 'NONE',  ( 0.5748017616236489324, 1.132069078809651019, 1.115768158587025383 ) ) ;
#210 = SECURITY_CLASSIFICATION ( '', '', #271 ) ;
#211 = APPROVAL_ROLE ( '' ) ;
#212 = ORIENTED_EDGE ( 'NONE', *, *, #284, .T. ) ;
#213 = APPLICATION_PROTOCOL_DEFINITION ( 'international standard', 'config_control_design', 1994, #189 ) ;
#214 = COORDINATED_UNIVERSAL_TIME_OFFSET ( 5, 0, .BEHIND. ) ;
#215 = FACE_OUTER_BOUND ( 'NONE', #16, .T. ) ;
#216 = APPROVAL_ROLE ( '' ) ;
#217 = DIRECTION ( 'NONE',  ( 1.000000000000000000, 0.0000000000000000000, 0.0000000000000000000 ) ) ;
#218 = DIRECTION ( 'NONE',  ( 1.000000000000000000, 0.0000000000000000000, 0.0000000000000000000 ) ) ;
#219 = VERTEX_POINT ( 'NONE', #234 ) ;
#220 = PRODUCT_RELATED_PRODUCT_CATEGORY ( 'detail', '', ( #30 ) ) ;
#221 = AXIS2_PLACEMENT_3D ( 'NONE', #34, #175, #223 ) ;
#222 = ORIENTED_EDGE ( 'NONE', *, *, #191, .F. ) ;
#223 = DIRECTION ( 'NONE',  ( 1.000000000000000000, 0.0000000000000000000, 0.0000000000000000000 ) ) ;
#224 = FACE_OUTER_BOUND ( 'NONE', #283, .T. ) ;
#225 = MANIFOLD_SOLID_BREP ( 'TTN162700-1-solid1', #208 ) ;
#226 = CONICAL_SURFACE ( 'NONE', #235, 1.000000000000000000, 0.7853981633974580490 ) ;
#227 = ORIENTED_EDGE ( 'NONE', *, *, #111, .F. ) ;
#228 = DATE_AND_TIME ( #153, #188 ) ;
#229 = FACE_OUTER_BOUND ( 'NONE', #84, .T. ) ;
#230 = DIRECTION ( 'NONE',  ( -0.0000000000000000000, -0.0000000000000000000, 1.000000000000000000 ) ) ;
#231 = EDGE_CURVE ( 'NONE', #299, #180, #12, .T. ) ;
#232 = CARTESIAN_POINT ( 'NONE',  ( 0.5748017616236489324, 1.132069078809651019, -2.642231841412975069 ) ) ;
#233 = CIRCLE ( 'NONE', #157, 4.708000000000000185 ) ;
#234 = CARTESIAN_POINT ( 'NONE',  ( 1.524801761623649332, 1.132069078809651019, 1.065768158587025116 ) ) ;
#235 = AXIS2_PLACEMENT_3D ( 'NONE', #90, #262, #116 ) ;
#236 = PERSON_AND_ORGANIZATION_ROLE ( 'design_owner' ) ;
#237 = VECTOR ( 'NONE', #304, 1000.000000000000114 ) ;
#238 =( NAMED_UNIT ( * ) SI_UNIT ( $, .STERADIAN. ) SOLID_ANGLE_UNIT ( ) );
#239 = CARTESIAN_POINT ( 'NONE',  ( 0.5748017616236489324, 1.132069078809651019, -2.642231841412975069 ) ) ;
#240 = APPROVAL ( #134, 'UNSPECIFIED' ) ;
#241 = CONICAL_SURFACE ( 'NONE', #31, 1.000000000000000000, 0.7853981633974580490 ) ;
#242 = CARTESIAN_POINT ( 'NONE',  ( -0.3751982383763514117, 1.132069078809651241, 1.065768158587025116 ) ) ;
#243 = DIRECTION ( 'NONE',  ( -0.0000000000000000000, -0.0000000000000000000, 1.000000000000000000 ) ) ;
#244 = PRODUCT_DEFINITION ( 'UNKNOWN', '', #246, #23 ) ;
#245 = ORIENTED_EDGE ( 'NONE', *, *, #122, .F. ) ;
#246 = PRODUCT_DEFINITION_FORMATION_WITH_SPECIFIED_SOURCE ( 'ANY', '', #30, .NOT_KNOWN. ) ;
#247 = AXIS2_PLACEMENT_3D ( 'NONE', #11, #62, #14 ) ;
#248 = COORDINATED_UNIVERSAL_TIME_OFFSET ( 5, 0, .BEHIND. ) ;
#249 = EDGE_LOOP ( 'NONE', ( #152, #170, #151, #35, #265 ) ) ;
#250 = CARTESIAN_POINT ( 'NONE',  ( 0.5748017616236489324, 1.132069078809651019, -2.642231841412975069 ) ) ;
#251 = LOCAL_TIME ( 10, 5, 5.000000000000000000, #69 ) ;
#252 = ORIENTED_EDGE ( 'NONE', *, *, #122, .T. ) ;
#253 = DIRECTION ( 'NONE',  ( 0.0000000000000000000, -0.0000000000000000000, 1.000000000000000000 ) ) ;
#254 = DIRECTION ( 'NONE',  ( 1.000000000000000000, 0.0000000000000000000, 0.0000000000000000000 ) ) ;
#255 = DIRECTION ( 'NONE',  ( 0.0000000000000000000, 1.000000000000000000, 0.0000000000000000000 ) ) ;
#256 = PERSON_AND_ORGANIZATION ( #144, #305 ) ;
#257 = VERTEX_POINT ( 'NONE', #127 ) ;
#258 = DIRECTION ( 'NONE',  ( -0.0000000000000000000, -0.0000000000000000000, 1.000000000000000000 ) ) ;
#259 = FACE_OUTER_BOUND ( 'NONE', #249, .T. ) ;
#260 = DATE_AND_TIME ( #310, #129 ) ;
#261 = AXIS2_PLACEMENT_3D ( 'NONE', #29, #139, #218 ) ;
#262 = DIRECTION ( 'NONE',  ( 0.0000000000000000000, 0.0000000000000000000, -1.000000000000000000 ) ) ;
#263 = ORIENTED_EDGE ( 'NONE', *, *, #73, .F. ) ;
#264 = VECTOR ( 'NONE', #258, 1000.000000000000000 ) ;
#265 = ORIENTED_EDGE ( 'NONE', *, *, #179, .T. ) ;
#266 = FACE_OUTER_BOUND ( 'NONE', #8, .T. ) ;
#267 = DIRECTION ( 'NONE',  ( -0.0000000000000000000, -0.0000000000000000000, 1.000000000000000000 ) ) ;
#268 = ORIENTED_EDGE ( 'NONE', *, *, #313, .T. ) ;
#269 = EDGE_CURVE ( 'NONE', #25, #257, #286, .T. ) ;
#270 = ORIENTED_EDGE ( 'NONE', *, *, #73, .T. ) ;
#271 = SECURITY_CLASSIFICATION_LEVEL ( 'unclassified' ) ;
#272 = APPROVAL_DATE_TIME ( #260, #117 ) ;
#273 = SPHERICAL_SURFACE ( 'NONE', #67, 4.708000000000000185 ) ;
#274 = DIRECTION ( 'NONE',  ( 0.0000000000000000000, 0.0000000000000000000, 1.000000000000000000 ) ) ;
#275 = APPROVAL_ROLE ( '' ) ;
#276 = AXIS2_PLACEMENT_3D ( 'NONE', #44, #181, #71 ) ;
#277 = EDGE_LOOP ( 'NONE', ( #245, #5, #132, #212 ) ) ;
#278 = CARTESIAN_POINT ( 'NONE',  ( 1.574801761623648932, 1.132069078809651019, 1.115768158587025383 ) ) ;
#279 = CARTESIAN_POINT ( 'NONE',  ( -0.4251982383763511231, 1.132069078809651241, 1.918924629582127173 ) ) ;
#280 = ORIENTED_EDGE ( 'NONE', *, *, #38, .T. ) ;
#281 = CALENDAR_DATE ( 2019, 24, 10 ) ;
#282 = DIRECTION ( 'NONE',  ( -0.0000000000000000000, -0.0000000000000000000, 1.000000000000000000 ) ) ;
#283 = EDGE_LOOP ( 'NONE', ( #268, #315 ) ) ;
#284 = EDGE_CURVE ( 'NONE', #180, #21, #233, .T. ) ;
#285 = DIRECTION ( 'NONE',  ( -0.7071067811865444641, 8.659560562354895880E-17, 0.7071067811865505703 ) ) ;
#286 = CIRCLE ( 'NONE', #150, 1.000000000000000000 ) ;
#287 = AXIS2_PLACEMENT_3D ( 'NONE', #125, #158, #48 ) ;
#288 = LOCAL_TIME ( 10, 5, 5.000000000000000000, #214 ) ;
#289 = LINE ( 'NONE', #60, #237 ) ;
#290 = EDGE_CURVE ( 'NONE', #219, #25, #98, .T. ) ;
#291 = COORDINATED_UNIVERSAL_TIME_OFFSET ( 5, 0, .BEHIND. ) ;
#292 = CIRCLE ( 'NONE', #107, 0.9499999999999990674 ) ;
#293 = CC_DESIGN_PERSON_AND_ORGANIZATION_ASSIGNMENT ( #256, #54, ( #210 ) ) ;
#294 = CARTESIAN_POINT ( 'NONE',  ( 1.574801761623648932, 1.132069078809651019, 1.115768158587025383 ) ) ;
#295 = MECHANICAL_CONTEXT ( 'NONE', #189, 'mechanical' ) ;
#296 = DIRECTION ( 'NONE',  ( 1.000000000000000000, 0.0000000000000000000, 0.0000000000000000000 ) ) ;
#297 = EDGE_CURVE ( 'NONE', #299, #63, #319, .T. ) ;
#298 = CARTESIAN_POINT ( 'NONE',  ( 0.5748017616236489324, 1.132069078809651019, 1.065768158587025116 ) ) ;
#299 = VERTEX_POINT ( 'NONE', #320 ) ;
#300 = DIRECTION ( 'NONE',  ( 1.000000000000000000, 0.0000000000000000000, 0.0000000000000000000 ) ) ;
#301 = DATE_AND_TIME ( #93, #203 ) ;
#302 = EDGE_LOOP ( 'NONE', ( #227, #76, #190, #222 ) ) ;
#303 = PRODUCT_DEFINITION_SHAPE ( 'NONE', 'NONE',  #244 ) ;
#304 = DIRECTION ( 'NONE',  ( -0.7071067811865544561, 0.0000000000000000000, -0.7071067811865406894 ) ) ;
#305 = ORGANIZATION ( 'UNSPECIFIED', 'UNSPECIFIED', '' ) ;
#306 = DIRECTION ( 'NONE',  ( -0.0000000000000000000, -0.0000000000000000000, 1.000000000000000000 ) ) ;
#307 = DIRECTION ( 'NONE',  ( 1.000000000000000000, 0.0000000000000000000, 0.0000000000000000000 ) ) ;
#308 = ORIENTED_EDGE ( 'NONE', *, *, #96, .T. ) ;
#309 = ORIENTED_EDGE ( 'NONE', *, *, #191, .T. ) ;
#310 = CALENDAR_DATE ( 2019, 24, 10 ) ;
#311 = CC_DESIGN_PERSON_AND_ORGANIZATION_ASSIGNMENT ( #59, #104, ( #246 ) ) ;
#312 = ORIENTED_EDGE ( 'NONE', *, *, #64, .F. ) ;
#313 = EDGE_CURVE ( 'NONE', #219, #2, #109, .T. ) ;
#314 = CARTESIAN_POINT ( 'NONE',  ( 0.5748017616236489324, 1.132069078809651019, 1.115768158587025383 ) ) ;
#315 = ORIENTED_EDGE ( 'NONE', *, *, #201, .T. ) ;
#316 = DIRECTION ( 'NONE',  ( 0.0000000000000000000, 1.000000000000000000, 0.0000000000000000000 ) ) ;
#317 = DIRECTION ( 'NONE',  ( 1.000000000000000000, 0.0000000000000000000, 0.0000000000000000000 ) ) ;
#318 = DIRECTION ( 'NONE',  ( -0.0000000000000000000, -0.0000000000000000000, 1.000000000000000000 ) ) ;
#319 = LINE ( 'NONE', #49, #192 ) ;
#320 = CARTESIAN_POINT ( 'NONE',  ( 1.524801761623648000, 1.132069078809651241, 1.968924629582127217 ) ) ;
#321 = EDGE_CURVE ( 'NONE', #257, #80, #65, .T. ) ;
ENDSEC;
END-ISO-10303-21;
