ISO-10303-21;
HEADER;
FILE_DESCRIPTION (( 'STEP AP203' ),
    '1' );
FILE_NAME ('TTN047636-E0W.STEP',
    '2019-05-30T15:03:16',
    ( '' ),
    ( '' ),
    'SwSTEP 2.0',
    'SolidWorks 2018',
    '' );
FILE_SCHEMA (( 'CONFIG_CONTROL_DESIGN' ));
ENDSEC;

DATA;
#1 = CC_DESIGN_APPROVAL ( #258, ( #46 ) ) ;
#2 = CALENDAR_DATE ( 2019, 30, 5 ) ;
#3 = DATE_AND_TIME ( #169, #226 ) ;
#4 = DIRECTION ( 'NONE',  ( 1.000000000000000000, 1.224646799147353207E-16, 3.749275628560213616E-32 ) ) ;
#5 = FACE_OUTER_BOUND ( 'NONE', #152, .T. ) ;
#6 = DIRECTION ( 'NONE',  ( -1.224646799147353207E-16, 1.000000000000000000, 0.0000000000000000000 ) ) ;
#7 = DIRECTION ( 'NONE',  ( 0.0000000000000000000, -1.000000000000000000, -3.122502256758250798E-16 ) ) ;
#8 = DIRECTION ( 'NONE',  ( -0.0000000000000000000, 3.061515884555891870E-16, -1.000000000000000000 ) ) ;
#9 = PERSON_AND_ORGANIZATION_ROLE ( 'creator' ) ;
#10 = CYLINDRICAL_SURFACE ( 'NONE', #149, 12.69999999999999929 ) ;
#11 = DIRECTION ( 'NONE',  ( 0.0000000000000000000, 1.000000000000000000, 3.061515884555943146E-16 ) ) ;
#12 = CIRCLE ( 'NONE', #177, 12.50000000000000711 ) ;
#13 = ORIENTED_EDGE ( 'NONE', *, *, #68, .F. ) ;
#14 = DIRECTION ( 'NONE',  ( -0.0000000000000000000, 3.061515884555943146E-16, -1.000000000000000000 ) ) ;
#15 = CC_DESIGN_PERSON_AND_ORGANIZATION_ASSIGNMENT ( #251, #225, ( #270 ) ) ;
#16 = CARTESIAN_POINT ( 'NONE',  ( 0.0000000000000000000, -2.873225312186034548E-15, 35.45780052752375155 ) ) ;
#17 = AXIS2_PLACEMENT_3D ( 'NONE', #289, #269, #108 ) ;
#18 = CONICAL_SURFACE ( 'NONE', #239, 12.50000000000000711, 0.7853981633974480570 ) ;
#19 = ORIENTED_EDGE ( 'NONE', *, *, #68, .T. ) ;
#20 = VERTEX_POINT ( 'NONE', #187 ) ;
#21 = ORGANIZATION ( 'UNSPECIFIED', 'UNSPECIFIED', '' ) ;
#22 = AXIS2_PLACEMENT_3D ( 'NONE', #127, #217, #215 ) ;
#23 = ORIENTED_EDGE ( 'NONE', *, *, #135, .T. ) ;
#24 = AXIS2_PLACEMENT_3D ( 'NONE', #30, #4, #6 ) ;
#25 = MANIFOLD_SOLID_BREP ( 'TTN047637-1-solid1', #71 ) ;
#26 = PERSON_AND_ORGANIZATION_ROLE ( 'design_owner' ) ;
#27 = CARTESIAN_POINT ( 'NONE',  ( 0.0000000000000000000, 6.508247152130970985E-16, 1.970199472476226177 ) ) ;
#28 = CIRCLE ( 'NONE', #160, 12.69999999999999929 ) ;
#29 = DIRECTION ( 'NONE',  ( 1.000000000000000000, 0.0000000000000000000, 0.0000000000000000000 ) ) ;
#30 = CARTESIAN_POINT ( 'NONE',  ( 0.0000000000000000000, -2.873225312186034548E-15, 35.45780052752375155 ) ) ;
#31 = ORIENTED_EDGE ( 'NONE', *, *, #209, .F. ) ;
#32 = ADVANCED_FACE ( 'NONE', ( #261 ), #243, .T. ) ;
#33 = CARTESIAN_POINT ( 'NONE',  ( 1.555301434917138433E-15, -12.69999999999999929, 1.970199472476222402 ) ) ;
#34 =( NAMED_UNIT ( * ) PLANE_ANGLE_UNIT ( ) SI_UNIT ( $, .RADIAN. ) );
#35 = DATE_AND_TIME ( #235, #120 ) ;
#36 = DIRECTION ( 'NONE',  ( 0.0000000000000000000, 1.000000000000000000, 3.073328992872296367E-16 ) ) ;
#37 = DIRECTION ( 'NONE',  ( 0.0000000000000000000, -1.000000000000000000, -3.122502256758250798E-16 ) ) ;
#38 =( GEOMETRIC_REPRESENTATION_CONTEXT ( 3 ) GLOBAL_UNCERTAINTY_ASSIGNED_CONTEXT ( ( #119 ) ) GLOBAL_UNIT_ASSIGNED_CONTEXT ( ( #229, #34, #79 ) ) REPRESENTATION_CONTEXT ( 'NONE', 'WORKASPACE' ) );
#39 = EDGE_LOOP ( 'NONE', ( #13, #291, #158, #247 ) ) ;
#40 = EDGE_CURVE ( 'NONE', #20, #123, #296, .T. ) ;
#41 = AXIS2_PLACEMENT_3D ( 'NONE', #178, #181, #36 ) ;
#42 = FACE_OUTER_BOUND ( 'NONE', #69, .T. ) ;
#43 = AXIS2_PLACEMENT_3D ( 'NONE', #73, #129, #11 ) ;
#44 = EDGE_CURVE ( 'NONE', #133, #234, #28, .T. ) ;
#45 = SPHERICAL_SURFACE ( 'NONE', #17, 35.62800000000000011 ) ;
#46 = PRODUCT_DEFINITION_FORMATION_WITH_SPECIFIED_SOURCE ( 'ANY', '', #200, .NOT_KNOWN. ) ;
#47 = EDGE_LOOP ( 'NONE', ( #287, #297, #57, #170 ) ) ;
#48 = DIRECTION ( 'NONE',  ( 0.0000000000000000000, 0.8235475730897303670, -0.5672472078891311886 ) ) ;
#49 = FACE_OUTER_BOUND ( 'NONE', #39, .T. ) ;
#50 = VERTEX_POINT ( 'NONE', #212 ) ;
#51 = APPROVAL_ROLE ( '' ) ;
#52 = DIRECTION ( 'NONE',  ( 0.0000000000000000000, 1.000000000000000000, 3.122502256758250798E-16 ) ) ;
#53 = EDGE_CURVE ( 'NONE', #234, #279, #275, .T. ) ;
#54 = DIRECTION ( 'NONE',  ( 0.0000000000000000000, -3.061515884555942652E-16, 1.000000000000000000 ) ) ;
#55 = VERTEX_POINT ( 'NONE', #194 ) ;
#56 = SECURITY_CLASSIFICATION_LEVEL ( 'unclassified' ) ;
#57 = ORIENTED_EDGE ( 'NONE', *, *, #93, .T. ) ;
#58 = DIRECTION ( 'NONE',  ( -0.0000000000000000000, 3.061515884555891870E-16, -1.000000000000000000 ) ) ;
#59 = APPLICATION_CONTEXT ( 'configuration controlled 3d designs of mechanical parts and assemblies' ) ;
#60 = DIRECTION ( 'NONE',  ( -0.0000000000000000000, 3.061515884555943146E-16, -1.000000000000000000 ) ) ;
#61 = CARTESIAN_POINT ( 'NONE',  ( 0.0000000000000000000, 12.70000000000000107, -1.970199472476253710 ) ) ;
#62 = AXIS2_PLACEMENT_3D ( 'NONE', #227, #223, #37 ) ;
#63 = ORIENTED_EDGE ( 'NONE', *, *, #231, .F. ) ;
#64 = ADVANCED_FACE ( 'NONE', ( #164 ), #208, .T. ) ;
#65 = AXIS2_PLACEMENT_3D ( 'NONE', #153, #54, #97 ) ;
#66 = FACE_OUTER_BOUND ( 'NONE', #253, .T. ) ;
#67 = EDGE_CURVE ( 'NONE', #234, #133, #211, .T. ) ;
#68 = EDGE_CURVE ( 'NONE', #111, #279, #115, .T. ) ;
#69 = EDGE_LOOP ( 'NONE', ( #94, #146, #213, #182 ) ) ;
#70 = DIRECTION ( 'NONE',  ( 0.0000000000000000000, -1.000000000000000000, -3.073328992872296367E-16 ) ) ;
#71 = CLOSED_SHELL ( 'NONE', ( #64, #202, #203, #290, #88, #32, #138, #165, #294 ) ) ;
#72 = VECTOR ( 'NONE', #219, 1000.000000000000114 ) ;
#73 = CARTESIAN_POINT ( 'NONE',  ( 0.0000000000000000000, 1.918414429050164078E-15, -2.170199472476249447 ) ) ;
#74 = MECHANICAL_CONTEXT ( 'NONE', #156, 'mechanical' ) ;
#75 = DIRECTION ( 'NONE',  ( -0.0000000000000000000, 3.061515884555891870E-16, -1.000000000000000000 ) ) ;
#76 = DIRECTION ( 'NONE',  ( 0.0000000000000000000, 1.000000000000000000, 3.073328992872296367E-16 ) ) ;
#77 = CC_DESIGN_APPROVAL ( #126, ( #270 ) ) ;
#78 = CARTESIAN_POINT ( 'NONE',  ( 0.0000000000000000000, 1.918414429050163683E-15, -2.170199472476247671 ) ) ;
#79 =( NAMED_UNIT ( * ) SI_UNIT ( $, .STERADIAN. ) SOLID_ANGLE_UNIT ( ) );
#80 = LOCAL_TIME ( 11, 3, 16.00000000000000000, #168 ) ;
#81 = APPROVAL_STATUS ( 'not_yet_approved' ) ;
#82 = DIRECTION ( 'NONE',  ( 0.0000000000000000000, 1.000000000000000000, 3.073328992872296367E-16 ) ) ;
#83 = ORIENTED_EDGE ( 'NONE', *, *, #116, .T. ) ;
#84 = PRODUCT_DEFINITION_SHAPE ( 'NONE', 'NONE',  #92 ) ;
#85 = PERSON_AND_ORGANIZATION ( #220, #21 ) ;
#86 = CIRCLE ( 'NONE', #292, 35.62800000000000011 ) ;
#87 = EDGE_CURVE ( 'NONE', #55, #50, #196, .T. ) ;
#88 = ADVANCED_FACE ( 'NONE', ( #5 ), #191, .T. ) ;
#89 = PERSON_AND_ORGANIZATION ( #220, #21 ) ;
#90 = APPROVAL_DATE_TIME ( #3, #258 ) ;
#91 = PERSON_AND_ORGANIZATION ( #220, #21 ) ;
#92 = PRODUCT_DEFINITION ( 'UNKNOWN', '', #46, #218 ) ;
#93 = EDGE_CURVE ( 'NONE', #20, #234, #210, .T. ) ;
#94 = ORIENTED_EDGE ( 'NONE', *, *, #67, .T. ) ;
#95 = DIRECTION ( 'NONE',  ( -0.0000000000000000000, 3.061515884555943146E-16, -1.000000000000000000 ) ) ;
#96 = EDGE_CURVE ( 'NONE', #123, #133, #132, .T. ) ;
#97 = DIRECTION ( 'NONE',  ( 0.0000000000000000000, 1.000000000000000000, 3.073328992872296367E-16 ) ) ;
#98 = CARTESIAN_POINT ( 'NONE',  ( 0.0000000000000000000, 1.918414429050164078E-15, -2.170199472476249447 ) ) ;
#99 = CONICAL_SURFACE ( 'NONE', #260, 12.69999999999999929, 0.9676369370377523316 ) ;
#100 = APPLICATION_PROTOCOL_DEFINITION ( 'international standard', 'config_control_design', 1994, #156 ) ;
#101 = CARTESIAN_POINT ( 'NONE',  ( 0.0000000000000000000, -12.50000000000000533, -2.170199472476253444 ) ) ;
#102 = EDGE_CURVE ( 'NONE', #123, #20, #112, .T. ) ;
#103 = CALENDAR_DATE ( 2019, 30, 5 ) ;
#104 = APPROVAL_ROLE ( '' ) ;
#105 = DIRECTION ( 'NONE',  ( -1.000000000000000000, 0.0000000000000000000, 0.0000000000000000000 ) ) ;
#106 = PERSON_AND_ORGANIZATION ( #220, #21 ) ;
#107 = APPROVAL_PERSON_ORGANIZATION ( #295, #258, #266 ) ;
#108 = DIRECTION ( 'NONE',  ( 0.0000000000000000000, 1.000000000000000000, 3.895191368534427235E-16 ) ) ;
#109 = CIRCLE ( 'NONE', #204, 12.50000000000000711 ) ;
#110 = DIRECTION ( 'NONE',  ( -0.0000000000000000000, 3.061515884555943146E-16, -1.000000000000000000 ) ) ;
#111 = VERTEX_POINT ( 'NONE', #192 ) ;
#112 = CIRCLE ( 'NONE', #167, 12.51257443367702926 ) ;
#113 = ORIENTED_EDGE ( 'NONE', *, *, #147, .T. ) ;
#114 = EDGE_LOOP ( 'NONE', ( #232, #19, #207, #186 ) ) ;
#115 = LINE ( 'NONE', #281, #72 ) ;
#116 = EDGE_CURVE ( 'NONE', #279, #50, #252, .T. ) ;
#117 = LINE ( 'NONE', #201, #293 ) ;
#118 = VERTEX_POINT ( 'NONE', #250 ) ;
#119 = UNCERTAINTY_MEASURE_WITH_UNIT (LENGTH_MEASURE( 1.000000000000000082E-05 ), #229, 'distance_accuracy_value', 'NONE');
#120 = LOCAL_TIME ( 11, 3, 16.00000000000000000, #148 ) ;
#121 = AXIS2_PLACEMENT_3D ( 'NONE', #175, #159, #76 ) ;
#122 = CARTESIAN_POINT ( 'NONE',  ( 0.0000000000000000000, 7.339534024315310972E-15, 2.099295389527961131 ) ) ;
#123 = VERTEX_POINT ( 'NONE', #262 ) ;
#124 = EDGE_LOOP ( 'NONE', ( #259, #113, #63 ) ) ;
#125 = CARTESIAN_POINT ( 'NONE',  ( 0.0000000000000000000, 7.339534024315310972E-15, 2.099295389527961131 ) ) ;
#126 = APPROVAL ( #81, 'UNSPECIFIED' ) ;
#127 = CARTESIAN_POINT ( 'NONE',  ( 0.0000000000000000000, -2.873225312186034548E-15, 35.45780052752375155 ) ) ;
#128 = DIRECTION ( 'NONE',  ( -0.0000000000000000000, 3.061515884555943146E-16, -1.000000000000000000 ) ) ;
#129 = DIRECTION ( 'NONE',  ( -0.0000000000000000000, 3.061515884555943146E-16, -1.000000000000000000 ) ) ;
#130 = APPROVAL_STATUS ( 'not_yet_approved' ) ;
#131 = CARTESIAN_POINT ( 'NONE',  ( 0.0000000000000000000, 6.508247152130970985E-16, 1.970199472476226177 ) ) ;
#132 = LINE ( 'NONE', #157, #172 ) ;
#133 = VERTEX_POINT ( 'NONE', #33 ) ;
#134 = DIRECTION ( 'NONE',  ( 0.0000000000000000000, 1.000000000000000000, 3.122502256758250798E-16 ) ) ;
#135 = EDGE_CURVE ( 'NONE', #111, #55, #12, .T. ) ;
#136 = CARTESIAN_POINT ( 'NONE',  ( 0.0000000000000000000, 0.0000000000000000000, 0.0000000000000000000 ) ) ;
#137 = DATE_AND_TIME ( #103, #176 ) ;
#138 = ADVANCED_FACE ( 'NONE', ( #66 ), #142, .F. ) ;
#139 = FACE_OUTER_BOUND ( 'NONE', #124, .T. ) ;
#140 = CC_DESIGN_PERSON_AND_ORGANIZATION_ASSIGNMENT ( #89, #197, ( #46 ) ) ;
#141 = APPROVAL_PERSON_ORGANIZATION ( #85, #126, #51 ) ;
#142 = SPHERICAL_SURFACE ( 'NONE', #22, 35.62800000000000011 ) ;
#143 = AXIS2_PLACEMENT_3D ( 'NONE', #301, #95, #171 ) ;
#144 = LOCAL_TIME ( 11, 3, 16.00000000000000000, #286 ) ;
#145 = CALENDAR_DATE ( 2019, 30, 5 ) ;
#146 = ORIENTED_EDGE ( 'NONE', *, *, #209, .T. ) ;
#147 = EDGE_CURVE ( 'NONE', #123, #118, #185, .T. ) ;
#148 = COORDINATED_UNIVERSAL_TIME_OFFSET ( 5, 0, .BEHIND. ) ;
#149 = AXIS2_PLACEMENT_3D ( 'NONE', #78, #14, #254 ) ;
#150 = CARTESIAN_POINT ( 'NONE',  ( 0.0000000000000000000, 12.70000000000000107, -2.170199472476243674 ) ) ;
#151 = COORDINATED_UNIVERSAL_TIME_OFFSET ( 5, 0, .BEHIND. ) ;
#152 = EDGE_LOOP ( 'NONE', ( #163, #23 ) ) ;
#153 = CARTESIAN_POINT ( 'NONE',  ( 0.0000000000000000000, 1.857184111359047976E-15, -1.970199472476257485 ) ) ;
#154 = DIRECTION ( 'NONE',  ( 0.0000000000000000000, -3.061515884555942652E-16, 1.000000000000000000 ) ) ;
#155 = ADVANCED_BREP_SHAPE_REPRESENTATION ( 'TTN047636-E0W', ( #25, #272 ), #38 ) ;
#156 = APPLICATION_CONTEXT ( 'configuration controlled 3d designs of mechanical parts and assemblies' ) ;
#157 = CARTESIAN_POINT ( 'NONE',  ( 1.555301434917138433E-15, -12.69999999999999929, 1.970199472476221514 ) ) ;
#158 = ORIENTED_EDGE ( 'NONE', *, *, #87, .T. ) ;
#159 = DIRECTION ( 'NONE',  ( -0.0000000000000000000, 3.061515884555891870E-16, -1.000000000000000000 ) ) ;
#160 = AXIS2_PLACEMENT_3D ( 'NONE', #27, #8, #70 ) ;
#161 = PERSON_AND_ORGANIZATION_ROLE ( 'creator' ) ;
#162 = CARTESIAN_POINT ( 'NONE',  ( 0.0000000000000000000, 6.508247152130963096E-16, 1.970199472476225511 ) ) ;
#163 = ORIENTED_EDGE ( 'NONE', *, *, #166, .T. ) ;
#164 = FACE_OUTER_BOUND ( 'NONE', #280, .T. ) ;
#165 = ADVANCED_FACE ( 'NONE', ( #49 ), #18, .T. ) ;
#166 = EDGE_CURVE ( 'NONE', #55, #111, #109, .T. ) ;
#167 = AXIS2_PLACEMENT_3D ( 'NONE', #125, #246, #173 ) ;
#168 = COORDINATED_UNIVERSAL_TIME_OFFSET ( 5, 0, .BEHIND. ) ;
#169 = CALENDAR_DATE ( 2019, 30, 5 ) ;
#170 = ORIENTED_EDGE ( 'NONE', *, *, #44, .F. ) ;
#171 = DIRECTION ( 'NONE',  ( 0.0000000000000000000, 1.000000000000000000, 3.073328992872296367E-16 ) ) ;
#172 = VECTOR ( 'NONE', #222, 1000.000000000000114 ) ;
#173 = DIRECTION ( 'NONE',  ( 0.0000000000000000000, -1.000000000000000000, -3.119364317580180393E-16 ) ) ;
#174 = CARTESIAN_POINT ( 'NONE',  ( 0.0000000000000000000, 12.69999999999999929, 1.970199472476229285 ) ) ;
#175 = CARTESIAN_POINT ( 'NONE',  ( 0.0000000000000000000, 6.508247152130963096E-16, 1.970199472476225511 ) ) ;
#176 = LOCAL_TIME ( 11, 3, 16.00000000000000000, #151 ) ;
#177 = AXIS2_PLACEMENT_3D ( 'NONE', #98, #283, #52 ) ;
#178 = CARTESIAN_POINT ( 'NONE',  ( 0.0000000000000000000, 1.857184111359047976E-15, -1.970199472476257485 ) ) ;
#179 = DIRECTION ( 'NONE',  ( 0.0000000000000000000, 0.0000000000000000000, 1.000000000000000000 ) ) ;
#180 = AXIS2_PLACEMENT_3D ( 'NONE', #122, #276, #278 ) ;
#181 = DIRECTION ( 'NONE',  ( 0.0000000000000000000, -3.061515884555942652E-16, 1.000000000000000000 ) ) ;
#182 = ORIENTED_EDGE ( 'NONE', *, *, #53, .F. ) ;
#183 = VECTOR ( 'NONE', #48, 1000.000000000000000 ) ;
#184 = ORIENTED_EDGE ( 'NONE', *, *, #231, .T. ) ;
#185 = CIRCLE ( 'NONE', #24, 35.62800000000000011 ) ;
#186 = ORIENTED_EDGE ( 'NONE', *, *, #87, .F. ) ;
#187 = CARTESIAN_POINT ( 'NONE',  ( 0.0000000000000000000, 12.51257443367704347, 2.099295389527965572 ) ) ;
#188 = ORIENTED_EDGE ( 'NONE', *, *, #44, .T. ) ;
#189 = CC_DESIGN_APPROVAL ( #245, ( #92 ) ) ;
#190 = AXIS2_PLACEMENT_3D ( 'NONE', #131, #75, #249 ) ;
#191 = PLANE ( 'NONE',  #43 ) ;
#192 = CARTESIAN_POINT ( 'NONE',  ( 1.543054966925665470E-15, 12.50000000000000888, -2.170199472476245450 ) ) ;
#193 = DATE_TIME_ROLE ( 'classification_date' ) ;
#194 = CARTESIAN_POINT ( 'NONE',  ( 0.0000000000000000000, -12.50000000000000533, -2.170199472476253444 ) ) ;
#195 = CC_DESIGN_DATE_AND_TIME_ASSIGNMENT ( #137, #228, ( #92 ) ) ;
#196 = LINE ( 'NONE', #101, #221 ) ;
#197 = PERSON_AND_ORGANIZATION_ROLE ( 'design_supplier' ) ;
#198 = APPLICATION_PROTOCOL_DEFINITION ( 'international standard', 'config_control_design', 1994, #59 ) ;
#199 = CARTESIAN_POINT ( 'NONE',  ( 0.0000000000000000000, 1.918414429050164078E-15, -2.170199472476249447 ) ) ;
#200 = PRODUCT ( 'TTN047636-E0W', 'TTN047636-E0W', '', ( #74 ) ) ;
#201 = CARTESIAN_POINT ( 'NONE',  ( 1.555301434917138433E-15, -12.69999999999999751, -2.170199472476251668 ) ) ;
#202 = ADVANCED_FACE ( 'NONE', ( #288 ), #241, .T. ) ;
#203 = ADVANCED_FACE ( 'NONE', ( #139 ), #45, .F. ) ;
#204 = AXIS2_PLACEMENT_3D ( 'NONE', #199, #60, #134 ) ;
#205 = APPROVAL_DATE_TIME ( #255, #245 ) ;
#206 = DATE_AND_TIME ( #145, #80 ) ;
#207 = ORIENTED_EDGE ( 'NONE', *, *, #268, .F. ) ;
#208 = CONICAL_SURFACE ( 'NONE', #121, 12.69999999999999929, 0.9676369370377523316 ) ;
#209 = EDGE_CURVE ( 'NONE', #133, #50, #117, .T. ) ;
#210 = LINE ( 'NONE', #174, #183 ) ;
#211 = CIRCLE ( 'NONE', #190, 12.69999999999999929 ) ;
#212 = CARTESIAN_POINT ( 'NONE',  ( 1.555301434917138433E-15, -12.69999999999999751, -1.970199472476261482 ) ) ;
#213 = ORIENTED_EDGE ( 'NONE', *, *, #268, .T. ) ;
#214 = VECTOR ( 'NONE', #128, 1000.000000000000000 ) ;
#215 = DIRECTION ( 'NONE',  ( 0.0000000000000000000, 1.000000000000000000, 3.895191368534427235E-16 ) ) ;
#216 = APPROVAL_DATE_TIME ( #35, #126 ) ;
#217 = DIRECTION ( 'NONE',  ( 1.000000000000000000, 0.0000000000000000000, -0.0000000000000000000 ) ) ;
#218 = DESIGN_CONTEXT ( 'detailed design', #59, 'design' ) ;
#219 = DIRECTION ( 'NONE',  ( 8.659560562354930393E-17, 0.7071067811865471286, 0.7071067811865479058 ) ) ;
#220 = PERSON ( 'UNSPECIFIED', 'UNSPECIFIED', 'UNSPECIFIED', ('UNSPECIFIED'), ('UNSPECIFIED'), ('UNSPECIFIED') ) ;
#221 = VECTOR ( 'NONE', #267, 1000.000000000000000 ) ;
#222 = DIRECTION ( 'NONE',  ( 1.008554899329909002E-16, -0.8235475730897300339, -0.5672472078891316327 ) ) ;
#223 = DIRECTION ( 'NONE',  ( 0.0000000000000000000, -3.061515884555942652E-16, 1.000000000000000000 ) ) ;
#224 = CC_DESIGN_PERSON_AND_ORGANIZATION_ASSIGNMENT ( #106, #9, ( #46 ) ) ;
#225 = PERSON_AND_ORGANIZATION_ROLE ( 'classification_officer' ) ;
#226 = LOCAL_TIME ( 11, 3, 16.00000000000000000, #277 ) ;
#227 = CARTESIAN_POINT ( 'NONE',  ( 0.0000000000000000000, 1.918414429050164078E-15, -2.170199472476249447 ) ) ;
#228 = DATE_TIME_ROLE ( 'creation_date' ) ;
#229 =( LENGTH_UNIT ( ) NAMED_UNIT ( * ) SI_UNIT ( .MILLI., .METRE. ) );
#230 = CARTESIAN_POINT ( 'NONE',  ( 0.0000000000000000000, 12.69999999999999929, 1.970199472476230174 ) ) ;
#231 = EDGE_CURVE ( 'NONE', #20, #118, #86, .T. ) ;
#232 = ORIENTED_EDGE ( 'NONE', *, *, #135, .F. ) ;
#233 = CIRCLE ( 'NONE', #41, 12.69999999999999929 ) ;
#234 = VERTEX_POINT ( 'NONE', #230 ) ;
#235 = CALENDAR_DATE ( 2019, 30, 5 ) ;
#236 = PERSON_AND_ORGANIZATION ( #220, #21 ) ;
#237 = ORIENTED_EDGE ( 'NONE', *, *, #102, .T. ) ;
#238 = SHAPE_DEFINITION_REPRESENTATION ( #84, #155 ) ;
#239 = AXIS2_PLACEMENT_3D ( 'NONE', #265, #154, #7 ) ;
#240 = ORIENTED_EDGE ( 'NONE', *, *, #93, .F. ) ;
#241 = CONICAL_SURFACE ( 'NONE', #62, 12.50000000000000711, 0.7853981633974480570 ) ;
#242 = PERSON_AND_ORGANIZATION ( #220, #21 ) ;
#243 = CYLINDRICAL_SURFACE ( 'NONE', #143, 12.69999999999999929 ) ;
#244 = ORIENTED_EDGE ( 'NONE', *, *, #96, .T. ) ;
#245 = APPROVAL ( #248, 'UNSPECIFIED' ) ;
#246 = DIRECTION ( 'NONE',  ( 0.0000000000000000000, -3.061515884555891870E-16, 1.000000000000000000 ) ) ;
#247 = ORIENTED_EDGE ( 'NONE', *, *, #116, .F. ) ;
#248 = APPROVAL_STATUS ( 'not_yet_approved' ) ;
#249 = DIRECTION ( 'NONE',  ( 0.0000000000000000000, -1.000000000000000000, -3.073328992872296367E-16 ) ) ;
#250 = CARTESIAN_POINT ( 'NONE',  ( 0.0000000000000000000, 1.021592928931097620E-14, -0.1701994724762484479 ) ) ;
#251 = PERSON_AND_ORGANIZATION ( #220, #21 ) ;
#252 = CIRCLE ( 'NONE', #65, 12.69999999999999929 ) ;
#253 = EDGE_LOOP ( 'NONE', ( #274, #237, #184 ) ) ;
#254 = DIRECTION ( 'NONE',  ( 0.0000000000000000000, 1.000000000000000000, 3.073328992872296367E-16 ) ) ;
#255 = DATE_AND_TIME ( #2, #144 ) ;
#256 = ORIENTED_EDGE ( 'NONE', *, *, #67, .F. ) ;
#257 = CC_DESIGN_PERSON_AND_ORGANIZATION_ASSIGNMENT ( #242, #161, ( #92 ) ) ;
#258 = APPROVAL ( #130, 'UNSPECIFIED' ) ;
#259 = ORIENTED_EDGE ( 'NONE', *, *, #40, .T. ) ;
#260 = AXIS2_PLACEMENT_3D ( 'NONE', #162, #58, #82 ) ;
#261 = FACE_OUTER_BOUND ( 'NONE', #300, .T. ) ;
#262 = CARTESIAN_POINT ( 'NONE',  ( 1.532348422929558852E-15, -12.51257443367703104, 2.099295389527958466 ) ) ;
#263 = APPROVAL_PERSON_ORGANIZATION ( #91, #245, #104 ) ;
#264 = PRODUCT_RELATED_PRODUCT_CATEGORY ( 'detail', '', ( #200 ) ) ;
#265 = CARTESIAN_POINT ( 'NONE',  ( 0.0000000000000000000, 1.918414429050164078E-15, -2.170199472476249447 ) ) ;
#266 = APPROVAL_ROLE ( '' ) ;
#267 = DIRECTION ( 'NONE',  ( 0.0000000000000000000, -0.7071067811865475727, 0.7071067811865474617 ) ) ;
#268 = EDGE_CURVE ( 'NONE', #50, #279, #233, .T. ) ;
#269 = DIRECTION ( 'NONE',  ( 1.000000000000000000, 0.0000000000000000000, -0.0000000000000000000 ) ) ;
#270 = SECURITY_CLASSIFICATION ( '', '', #56 ) ;
#271 = DIRECTION ( 'NONE',  ( 0.0000000000000000000, 0.0000000000000000000, 1.000000000000000000 ) ) ;
#272 = AXIS2_PLACEMENT_3D ( 'NONE', #136, #179, #29 ) ;
#273 = CC_DESIGN_SECURITY_CLASSIFICATION ( #270, ( #46 ) ) ;
#274 = ORIENTED_EDGE ( 'NONE', *, *, #147, .F. ) ;
#275 = LINE ( 'NONE', #150, #214 ) ;
#276 = DIRECTION ( 'NONE',  ( 0.0000000000000000000, -3.061515884555891870E-16, 1.000000000000000000 ) ) ;
#277 = COORDINATED_UNIVERSAL_TIME_OFFSET ( 5, 0, .BEHIND. ) ;
#278 = DIRECTION ( 'NONE',  ( 0.0000000000000000000, -1.000000000000000000, -3.119364317580180393E-16 ) ) ;
#279 = VERTEX_POINT ( 'NONE', #61 ) ;
#280 = EDGE_LOOP ( 'NONE', ( #299, #244, #256, #240 ) ) ;
#281 = CARTESIAN_POINT ( 'NONE',  ( 1.530808498934192310E-15, 12.50000000000000888, -2.170199472476245450 ) ) ;
#282 = ORIENTED_EDGE ( 'NONE', *, *, #53, .T. ) ;
#283 = DIRECTION ( 'NONE',  ( -0.0000000000000000000, 3.061515884555943146E-16, -1.000000000000000000 ) ) ;
#284 = FACE_OUTER_BOUND ( 'NONE', #47, .T. ) ;
#285 = CC_DESIGN_PERSON_AND_ORGANIZATION_ASSIGNMENT ( #236, #26, ( #200 ) ) ;
#286 = COORDINATED_UNIVERSAL_TIME_OFFSET ( 5, 0, .BEHIND. ) ;
#287 = ORIENTED_EDGE ( 'NONE', *, *, #96, .F. ) ;
#288 = FACE_OUTER_BOUND ( 'NONE', #114, .T. ) ;
#289 = CARTESIAN_POINT ( 'NONE',  ( 0.0000000000000000000, -2.873225312186034548E-15, 35.45780052752375155 ) ) ;
#290 = ADVANCED_FACE ( 'NONE', ( #42 ), #10, .T. ) ;
#291 = ORIENTED_EDGE ( 'NONE', *, *, #166, .F. ) ;
#292 = AXIS2_PLACEMENT_3D ( 'NONE', #16, #105, #271 ) ;
#293 = VECTOR ( 'NONE', #110, 1000.000000000000000 ) ;
#294 = ADVANCED_FACE ( 'NONE', ( #284 ), #99, .T. ) ;
#295 = PERSON_AND_ORGANIZATION ( #220, #21 ) ;
#296 = CIRCLE ( 'NONE', #180, 12.51257443367702926 ) ;
#297 = ORIENTED_EDGE ( 'NONE', *, *, #40, .F. ) ;
#298 = CC_DESIGN_DATE_AND_TIME_ASSIGNMENT ( #206, #193, ( #270 ) ) ;
#299 = ORIENTED_EDGE ( 'NONE', *, *, #102, .F. ) ;
#300 = EDGE_LOOP ( 'NONE', ( #31, #188, #282, #83 ) ) ;
#301 = CARTESIAN_POINT ( 'NONE',  ( 0.0000000000000000000, 1.918414429050163683E-15, -2.170199472476247671 ) ) ;
ENDSEC;
END-ISO-10303-21;
