ISO-10303-21;
HEADER;
FILE_DESCRIPTION (( 'STEP AP203' ),
    '1' );
FILE_NAME ('Web Model 64094.STEP',
    '2017-01-31T19:05:08',
    ( '' ),
    ( '' ),
    'SwSTEP 2.0',
    'SolidWorks 2016',
    '' );
FILE_SCHEMA (( 'CONFIG_CONTROL_DESIGN' ));
ENDSEC;

DATA;
#1 = CC_DESIGN_DATE_AND_TIME_ASSIGNMENT ( #5, #14, ( #93 ) ) ;
#2 = CIRCLE ( 'NONE', #149, 12.50000000000000000 ) ;
#3 = APPROVAL ( #153, 'UNSPECIFIED' ) ;
#4 = CIRCLE ( 'NONE', #89, 12.50000000000000000 ) ;
#5 = DATE_AND_TIME ( #18, #111 ) ;
#6 = CARTESIAN_POINT ( 'NONE',  ( 3.000000000000000000, 1.530808498934191500E-015, -12.50000000000000000 ) ) ;
#7 = CARTESIAN_POINT ( 'NONE',  ( 0.0000000000000000000, 0.0000000000000000000, 0.0000000000000000000 ) ) ;
#8 =( LENGTH_UNIT ( ) NAMED_UNIT ( * ) SI_UNIT ( .MILLI., .METRE. ) );
#9 = AXIS2_PLACEMENT_3D ( 'NONE', #169, #49, #112 ) ;
#10 = CARTESIAN_POINT ( 'NONE',  ( 0.0000000000000000000, 0.0000000000000000000, 0.0000000000000000000 ) ) ;
#11 = ADVANCED_FACE ( 'NONE', ( #124 ), #63, .F. ) ;
#12 = APPROVAL_STATUS ( 'not_yet_approved' ) ;
#13 = CIRCLE ( 'NONE', #72, 12.50000000000000000 ) ;
#14 = DATE_TIME_ROLE ( 'classification_date' ) ;
#15 = AXIS2_PLACEMENT_3D ( 'NONE', #151, #125, #39 ) ;
#16 = COORDINATED_UNIVERSAL_TIME_OFFSET ( 5, 0, .BEHIND. ) ;
#17 = DIRECTION ( 'NONE',  ( 0.0000000000000000000, 0.0000000000000000000, 1.000000000000000000 ) ) ;
#18 = CALENDAR_DATE ( 2017, 31, 1 ) ;
#19 = PRODUCT_DEFINITION_FORMATION_WITH_SPECIFIED_SOURCE ( 'ANY', '', #146, .NOT_KNOWN. ) ;
#20 = DIRECTION ( 'NONE',  ( 0.0000000000000000000, 0.0000000000000000000, -1.000000000000000000 ) ) ;
#21 = CARTESIAN_POINT ( 'NONE',  ( 0.0000000000000000000, 1.530808498934191500E-015, -12.50000000000000000 ) ) ;
#22 = CC_DESIGN_APPROVAL ( #3, ( #170 ) ) ;
#23 = EDGE_CURVE ( 'NONE', #160, #98, #2, .T. ) ;
#24 = PERSON_AND_ORGANIZATION_ROLE ( 'creator' ) ;
#25 = ORGANIZATION ( 'UNSPECIFIED', 'UNSPECIFIED', '' ) ;
#26 = DATE_AND_TIME ( #43, #62 ) ;
#27 = AXIS2_PLACEMENT_3D ( 'NONE', #145, #168, #76 ) ;
#28 = EDGE_LOOP ( 'NONE', ( #29, #95, #97, #34 ) ) ;
#29 = ORIENTED_EDGE ( 'NONE', *, *, #55, .F. ) ;
#30 = LOCAL_TIME ( 14, 5, 8.000000000000000000, #16 ) ;
#31 = CC_DESIGN_PERSON_AND_ORGANIZATION_ASSIGNMENT ( #53, #115, ( #19 ) ) ;
#32 = EDGE_CURVE ( 'NONE', #98, #160, #13, .T. ) ;
#33 = CARTESIAN_POINT ( 'NONE',  ( 0.0000000000000000000, 0.0000000000000000000, 0.0000000000000000000 ) ) ;
#34 = ORIENTED_EDGE ( 'NONE', *, *, #32, .T. ) ;
#35 = CARTESIAN_POINT ( 'NONE',  ( 3.000000000000000000, 1.530808498934191500E-015, -12.50000000000000000 ) ) ;
#36 =( GEOMETRIC_REPRESENTATION_CONTEXT ( 3 ) GLOBAL_UNCERTAINTY_ASSIGNED_CONTEXT ( ( #79 ) ) GLOBAL_UNIT_ASSIGNED_CONTEXT ( ( #8, #41, #67 ) ) REPRESENTATION_CONTEXT ( 'NONE', 'WORKASPACE' ) );
#37 = EDGE_CURVE ( 'NONE', #60, #130, #4, .T. ) ;
#38 = APPROVAL_DATE_TIME ( #71, #141 ) ;
#39 = DIRECTION ( 'NONE',  ( 0.0000000000000000000, 0.0000000000000000000, -1.000000000000000000 ) ) ;
#40 = ADVANCED_FACE ( 'NONE', ( #132 ), #143, .T. ) ;
#41 =( NAMED_UNIT ( * ) PLANE_ANGLE_UNIT ( ) SI_UNIT ( $, .RADIAN. ) );
#42 = PERSON_AND_ORGANIZATION ( #166, #25 ) ;
#43 = CALENDAR_DATE ( 2017, 31, 1 ) ;
#44 = AXIS2_PLACEMENT_3D ( 'NONE', #51, #88, #17 ) ;
#45 = AXIS2_PLACEMENT_3D ( 'NONE', #10, #50, #150 ) ;
#46 = VECTOR ( 'NONE', #148, 1000.000000000000000 ) ;
#47 = DIRECTION ( 'NONE',  ( -1.000000000000000000, -0.0000000000000000000, -0.0000000000000000000 ) ) ;
#48 = CC_DESIGN_PERSON_AND_ORGANIZATION_ASSIGNMENT ( #147, #24, ( #19 ) ) ;
#49 = DIRECTION ( 'NONE',  ( -1.000000000000000000, -0.0000000000000000000, -0.0000000000000000000 ) ) ;
#50 = DIRECTION ( 'NONE',  ( 1.000000000000000000, 0.0000000000000000000, 0.0000000000000000000 ) ) ;
#51 = CARTESIAN_POINT ( 'NONE',  ( 3.000000000000000000, 0.0000000000000000000, 0.0000000000000000000 ) ) ;
#52 = APPLICATION_PROTOCOL_DEFINITION ( 'international standard', 'config_control_design', 1994, #171 ) ;
#53 = PERSON_AND_ORGANIZATION ( #166, #25 ) ;
#54 = MECHANICAL_CONTEXT ( 'NONE', #139, 'mechanical' ) ;
#55 = EDGE_CURVE ( 'NONE', #60, #160, #94, .T. ) ;
#56 = CC_DESIGN_DATE_AND_TIME_ASSIGNMENT ( #117, #103, ( #170 ) ) ;
#57 = EDGE_LOOP ( 'NONE', ( #70, #101, #68, #85 ) ) ;
#58 = PERSON_AND_ORGANIZATION ( #166, #25 ) ;
#59 = CC_DESIGN_APPROVAL ( #141, ( #93 ) ) ;
#60 = VERTEX_POINT ( 'NONE', #35 ) ;
#61 = DIRECTION ( 'NONE',  ( 0.0000000000000000000, 0.0000000000000000000, 1.000000000000000000 ) ) ;
#62 = LOCAL_TIME ( 14, 5, 8.000000000000000000, #127 ) ;
#63 = PLANE ( 'NONE',  #45 ) ;
#64 = CC_DESIGN_APPROVAL ( #163, ( #19 ) ) ;
#65 = ADVANCED_FACE ( 'NONE', ( #74 ), #78, .T. ) ;
#66 = APPROVAL_ROLE ( '' ) ;
#67 =( NAMED_UNIT ( * ) SI_UNIT ( $, .STERADIAN. ) SOLID_ANGLE_UNIT ( ) );
#68 = ORIENTED_EDGE ( 'NONE', *, *, #23, .T. ) ;
#69 = ORIENTED_EDGE ( 'NONE', *, *, #32, .F. ) ;
#70 = ORIENTED_EDGE ( 'NONE', *, *, #37, .F. ) ;
#71 = DATE_AND_TIME ( #106, #105 ) ;
#72 = AXIS2_PLACEMENT_3D ( 'NONE', #33, #113, #100 ) ;
#73 = SECURITY_CLASSIFICATION_LEVEL ( 'unclassified' ) ;
#74 = FACE_OUTER_BOUND ( 'NONE', #152, .T. ) ;
#75 = COORDINATED_UNIVERSAL_TIME_OFFSET ( 5, 0, .BEHIND. ) ;
#76 = DIRECTION ( 'NONE',  ( 0.0000000000000000000, 0.0000000000000000000, -1.000000000000000000 ) ) ;
#77 = DIRECTION ( 'NONE',  ( 1.000000000000000000, 0.0000000000000000000, 0.0000000000000000000 ) ) ;
#78 = PLANE ( 'NONE',  #15 ) ;
#79 = UNCERTAINTY_MEASURE_WITH_UNIT (LENGTH_MEASURE( 1.000000000000000100E-005 ), #8, 'distance_accuracy_value', 'NONE');
#80 = APPROVAL_ROLE ( '' ) ;
#81 = APPLICATION_PROTOCOL_DEFINITION ( 'international standard', 'config_control_design', 1994, #139 ) ;
#82 = CLOSED_SHELL ( 'NONE', ( #40, #167, #65, #11 ) ) ;
#83 = APPROVAL_PERSON_ORGANIZATION ( #86, #163, #66 ) ;
#84 = CC_DESIGN_SECURITY_CLASSIFICATION ( #93, ( #19 ) ) ;
#85 = ORIENTED_EDGE ( 'NONE', *, *, #131, .F. ) ;
#86 = PERSON_AND_ORGANIZATION ( #166, #25 ) ;
#87 = COORDINATED_UNIVERSAL_TIME_OFFSET ( 5, 0, .BEHIND. ) ;
#88 = DIRECTION ( 'NONE',  ( -1.000000000000000000, -0.0000000000000000000, -0.0000000000000000000 ) ) ;
#89 = AXIS2_PLACEMENT_3D ( 'NONE', #123, #77, #122 ) ;
#90 = CARTESIAN_POINT ( 'NONE',  ( 0.0000000000000000000, 0.0000000000000000000, 12.50000000000000000 ) ) ;
#91 = PERSON_AND_ORGANIZATION_ROLE ( 'creator' ) ;
#92 = CALENDAR_DATE ( 2017, 31, 1 ) ;
#93 = SECURITY_CLASSIFICATION ( '', '', #73 ) ;
#94 = LINE ( 'NONE', #6, #46 ) ;
#95 = ORIENTED_EDGE ( 'NONE', *, *, #140, .F. ) ;
#96 = PERSON_AND_ORGANIZATION_ROLE ( 'classification_officer' ) ;
#97 = ORIENTED_EDGE ( 'NONE', *, *, #131, .T. ) ;
#98 = VERTEX_POINT ( 'NONE', #90 ) ;
#99 = CARTESIAN_POINT ( 'NONE',  ( 3.000000000000000000, 0.0000000000000000000, 12.50000000000000000 ) ) ;
#100 = DIRECTION ( 'NONE',  ( 0.0000000000000000000, 0.0000000000000000000, -1.000000000000000000 ) ) ;
#101 = ORIENTED_EDGE ( 'NONE', *, *, #55, .T. ) ;
#102 = DIRECTION ( 'NONE',  ( 1.000000000000000000, 0.0000000000000000000, 0.0000000000000000000 ) ) ;
#103 = DATE_TIME_ROLE ( 'creation_date' ) ;
#104 = CYLINDRICAL_SURFACE ( 'NONE', #44, 12.50000000000000000 ) ;
#105 = LOCAL_TIME ( 14, 5, 8.000000000000000000, #75 ) ;
#106 = CALENDAR_DATE ( 2017, 31, 1 ) ;
#107 = APPROVAL_PERSON_ORGANIZATION ( #118, #141, #133 ) ;
#108 = APPROVAL_PERSON_ORGANIZATION ( #175, #3, #80 ) ;
#109 = CC_DESIGN_PERSON_AND_ORGANIZATION_ASSIGNMENT ( #144, #96, ( #93 ) ) ;
#110 = APPROVAL_DATE_TIME ( #121, #3 ) ;
#111 = LOCAL_TIME ( 14, 5, 8.000000000000000000, #116 ) ;
#112 = DIRECTION ( 'NONE',  ( 0.0000000000000000000, 0.0000000000000000000, 1.000000000000000000 ) ) ;
#113 = DIRECTION ( 'NONE',  ( 1.000000000000000000, 0.0000000000000000000, 0.0000000000000000000 ) ) ;
#114 = AXIS2_PLACEMENT_3D ( 'NONE', #135, #61, #172 ) ;
#115 = PERSON_AND_ORGANIZATION_ROLE ( 'design_supplier' ) ;
#116 = COORDINATED_UNIVERSAL_TIME_OFFSET ( 5, 0, .BEHIND. ) ;
#117 = DATE_AND_TIME ( #165, #30 ) ;
#118 = PERSON_AND_ORGANIZATION ( #166, #25 ) ;
#119 = DESIGN_CONTEXT ( 'detailed design', #171, 'design' ) ;
#120 = FACE_OUTER_BOUND ( 'NONE', #28, .T. ) ;
#121 = DATE_AND_TIME ( #92, #155 ) ;
#122 = DIRECTION ( 'NONE',  ( 0.0000000000000000000, 0.0000000000000000000, -1.000000000000000000 ) ) ;
#123 = CARTESIAN_POINT ( 'NONE',  ( 3.000000000000000000, 0.0000000000000000000, 0.0000000000000000000 ) ) ;
#124 = FACE_OUTER_BOUND ( 'NONE', #128, .T. ) ;
#125 = DIRECTION ( 'NONE',  ( 1.000000000000000000, 0.0000000000000000000, 0.0000000000000000000 ) ) ;
#126 = CIRCLE ( 'NONE', #27, 12.50000000000000000 ) ;
#127 = COORDINATED_UNIVERSAL_TIME_OFFSET ( 5, 0, .BEHIND. ) ;
#128 = EDGE_LOOP ( 'NONE', ( #69, #158 ) ) ;
#129 = ADVANCED_BREP_SHAPE_REPRESENTATION ( 'Web Model 64094', ( #174, #114 ), #36 ) ;
#130 = VERTEX_POINT ( 'NONE', #136 ) ;
#131 = EDGE_CURVE ( 'NONE', #130, #98, #164, .T. ) ;
#132 = FACE_OUTER_BOUND ( 'NONE', #57, .T. ) ;
#133 = APPROVAL_ROLE ( '' ) ;
#134 = ORIENTED_EDGE ( 'NONE', *, *, #37, .T. ) ;
#135 = CARTESIAN_POINT ( 'NONE',  ( 0.0000000000000000000, 0.0000000000000000000, 0.0000000000000000000 ) ) ;
#136 = CARTESIAN_POINT ( 'NONE',  ( 3.000000000000000000, 0.0000000000000000000, 12.50000000000000000 ) ) ;
#137 = ORIENTED_EDGE ( 'NONE', *, *, #140, .T. ) ;
#138 = VECTOR ( 'NONE', #47, 1000.000000000000000 ) ;
#139 = APPLICATION_CONTEXT ( 'configuration controlled 3d designs of mechanical parts and assemblies' ) ;
#140 = EDGE_CURVE ( 'NONE', #130, #60, #126, .T. ) ;
#141 = APPROVAL ( #162, 'UNSPECIFIED' ) ;
#142 = CC_DESIGN_PERSON_AND_ORGANIZATION_ASSIGNMENT ( #58, #91, ( #170 ) ) ;
#143 = CYLINDRICAL_SURFACE ( 'NONE', #9, 12.50000000000000000 ) ;
#144 = PERSON_AND_ORGANIZATION ( #166, #25 ) ;
#145 = CARTESIAN_POINT ( 'NONE',  ( 3.000000000000000000, 0.0000000000000000000, 0.0000000000000000000 ) ) ;
#146 = PRODUCT ( 'Web Model 64094', 'Web Model 64094', '', ( #54 ) ) ;
#147 = PERSON_AND_ORGANIZATION ( #166, #25 ) ;
#148 = DIRECTION ( 'NONE',  ( -1.000000000000000000, -0.0000000000000000000, -0.0000000000000000000 ) ) ;
#149 = AXIS2_PLACEMENT_3D ( 'NONE', #7, #102, #20 ) ;
#150 = DIRECTION ( 'NONE',  ( 0.0000000000000000000, 0.0000000000000000000, -1.000000000000000000 ) ) ;
#151 = CARTESIAN_POINT ( 'NONE',  ( 3.000000000000000000, 0.0000000000000000000, 0.0000000000000000000 ) ) ;
#152 = EDGE_LOOP ( 'NONE', ( #137, #134 ) ) ;
#153 = APPROVAL_STATUS ( 'not_yet_approved' ) ;
#154 = PERSON_AND_ORGANIZATION_ROLE ( 'design_owner' ) ;
#155 = LOCAL_TIME ( 14, 5, 8.000000000000000000, #87 ) ;
#156 = PRODUCT_RELATED_PRODUCT_CATEGORY ( 'detail', '', ( #146 ) ) ;
#157 = PRODUCT_DEFINITION_SHAPE ( 'NONE', 'NONE',  #170 ) ;
#158 = ORIENTED_EDGE ( 'NONE', *, *, #23, .F. ) ;
#159 = CC_DESIGN_PERSON_AND_ORGANIZATION_ASSIGNMENT ( #42, #154, ( #146 ) ) ;
#160 = VERTEX_POINT ( 'NONE', #21 ) ;
#161 = APPROVAL_DATE_TIME ( #26, #163 ) ;
#162 = APPROVAL_STATUS ( 'not_yet_approved' ) ;
#163 = APPROVAL ( #12, 'UNSPECIFIED' ) ;
#164 = LINE ( 'NONE', #99, #138 ) ;
#165 = CALENDAR_DATE ( 2017, 31, 1 ) ;
#166 = PERSON ( 'UNSPECIFIED', 'UNSPECIFIED', 'UNSPECIFIED', ('UNSPECIFIED'), ('UNSPECIFIED'), ('UNSPECIFIED') ) ;
#167 = ADVANCED_FACE ( 'NONE', ( #120 ), #104, .T. ) ;
#168 = DIRECTION ( 'NONE',  ( 1.000000000000000000, 0.0000000000000000000, 0.0000000000000000000 ) ) ;
#169 = CARTESIAN_POINT ( 'NONE',  ( 3.000000000000000000, 0.0000000000000000000, 0.0000000000000000000 ) ) ;
#170 = PRODUCT_DEFINITION ( 'UNKNOWN', '', #19, #119 ) ;
#171 = APPLICATION_CONTEXT ( 'configuration controlled 3d designs of mechanical parts and assemblies' ) ;
#172 = DIRECTION ( 'NONE',  ( 1.000000000000000000, 0.0000000000000000000, 0.0000000000000000000 ) ) ;
#173 = SHAPE_DEFINITION_REPRESENTATION ( #157, #129 ) ;
#174 = MANIFOLD_SOLID_BREP ( 'Extrude1', #82 ) ;
#175 = PERSON_AND_ORGANIZATION ( #166, #25 ) ;
ENDSEC;
END-ISO-10303-21;
