ISO-10303-21;
HEADER;
FILE_DESCRIPTION (( 'STEP AP203' ),
    '1' );
FILE_NAME ('Web Model 46706.STEP',
    '2017-01-31T15:19:48',
    ( '' ),
    ( '' ),
    'SwSTEP 2.0',
    'SolidWorks 2016',
    '' );
FILE_SCHEMA (( 'CONFIG_CONTROL_DESIGN' ));
ENDSEC;

DATA;
#1 = APPROVAL ( #7, 'UNSPECIFIED' ) ;
#2 = LOCAL_TIME ( 10, 19, 48.00000000000000000, #189 ) ;
#3 = LINE ( 'NONE', #144, #90 ) ;
#4 = FACE_OUTER_BOUND ( 'NONE', #37, .T. ) ;
#5 = DATE_AND_TIME ( #229, #106 ) ;
#6 = LINE ( 'NONE', #74, #193 ) ;
#7 = APPROVAL_STATUS ( 'not_yet_approved' ) ;
#8 = AXIS2_PLACEMENT_3D ( 'NONE', #159, #75, #235 ) ;
#9 = EDGE_CURVE ( 'NONE', #77, #199, #233, .T. ) ;
#10 = ORIENTED_EDGE ( 'NONE', *, *, #116, .T. ) ;
#11 = CARTESIAN_POINT ( 'NONE',  ( 12.49999999999999800, 18.99999999999999600, 1.500000000000000000 ) ) ;
#12 = APPROVAL_PERSON_ORGANIZATION ( #196, #211, #43 ) ;
#13 = APPLICATION_PROTOCOL_DEFINITION ( 'international standard', 'config_control_design', 1994, #99 ) ;
#14 = PERSON_AND_ORGANIZATION ( #146, #31 ) ;
#15 = ORIENTED_EDGE ( 'NONE', *, *, #9, .T. ) ;
#16 =( LENGTH_UNIT ( ) NAMED_UNIT ( * ) SI_UNIT ( .MILLI., .METRE. ) );
#17 = DIRECTION ( 'NONE',  ( 0.0000000000000000000, -1.000000000000000000, 0.0000000000000000000 ) ) ;
#18 =( NAMED_UNIT ( * ) SI_UNIT ( $, .STERADIAN. ) SOLID_ANGLE_UNIT ( ) );
#19 = ORIENTED_EDGE ( 'NONE', *, *, #157, .F. ) ;
#20 = DESIGN_CONTEXT ( 'detailed design', #99, 'design' ) ;
#21 = CARTESIAN_POINT ( 'NONE',  ( 12.49999999999999800, 18.99999999999999600, 1.500000000000000000 ) ) ;
#22 = DIRECTION ( 'NONE',  ( -0.0000000000000000000, -0.0000000000000000000, -1.000000000000000000 ) ) ;
#23 = CC_DESIGN_PERSON_AND_ORGANIZATION_ASSIGNMENT ( #232, #170, ( #163 ) ) ;
#24 = ADVANCED_FACE ( 'NONE', ( #4 ), #197, .F. ) ;
#25 = ORIENTED_EDGE ( 'NONE', *, *, #116, .F. ) ;
#26 = SHAPE_DEFINITION_REPRESENTATION ( #62, #100 ) ;
#27 = LINE ( 'NONE', #125, #54 ) ;
#28 = APPROVAL_STATUS ( 'not_yet_approved' ) ;
#29 = ORIENTED_EDGE ( 'NONE', *, *, #124, .T. ) ;
#30 = CARTESIAN_POINT ( 'NONE',  ( -12.50000000000000000, 18.99999999999999600, 1.500000000000000000 ) ) ;
#31 = ORGANIZATION ( 'UNSPECIFIED', 'UNSPECIFIED', '' ) ;
#32 = ORIENTED_EDGE ( 'NONE', *, *, #231, .F. ) ;
#33 = APPLICATION_PROTOCOL_DEFINITION ( 'international standard', 'config_control_design', 1994, #187 ) ;
#34 = CARTESIAN_POINT ( 'NONE',  ( -12.49999999999999600, -19.00000000000000400, 1.500000000000000000 ) ) ;
#35 = CARTESIAN_POINT ( 'NONE',  ( 12.50000000000000400, -19.00000000000000400, 1.500000000000000000 ) ) ;
#36 = PLANE ( 'NONE',  #8 ) ;
#37 = EDGE_LOOP ( 'NONE', ( #203, #19, #88, #79 ) ) ;
#38 = APPROVAL_DATE_TIME ( #5, #211 ) ;
#39 = APPROVAL_PERSON_ORGANIZATION ( #139, #1, #190 ) ;
#40 = CARTESIAN_POINT ( 'NONE',  ( 12.50000000000000400, -19.00000000000000400, 1.500000000000000000 ) ) ;
#41 = ORIENTED_EDGE ( 'NONE', *, *, #168, .T. ) ;
#42 = PERSON_AND_ORGANIZATION ( #146, #31 ) ;
#43 = APPROVAL_ROLE ( '' ) ;
#44 = PERSON_AND_ORGANIZATION_ROLE ( 'design_supplier' ) ;
#45 = APPROVAL_DATE_TIME ( #98, #1 ) ;
#46 = PERSON_AND_ORGANIZATION_ROLE ( 'creator' ) ;
#47 = LINE ( 'NONE', #55, #177 ) ;
#48 = ORIENTED_EDGE ( 'NONE', *, *, #231, .T. ) ;
#49 = COORDINATED_UNIVERSAL_TIME_OFFSET ( 5, 0, .BEHIND. ) ;
#50 = DIRECTION ( 'NONE',  ( 9.130123557772669600E-017, -1.000000000000000000, 0.0000000000000000000 ) ) ;
#51 = CARTESIAN_POINT ( 'NONE',  ( -12.50000000000000000, 18.99999999999999600, 1.500000000000000000 ) ) ;
#52 = VECTOR ( 'NONE', #64, 1000.000000000000000 ) ;
#53 = CARTESIAN_POINT ( 'NONE',  ( -12.50000000000000000, 18.99999999999999600, 1.500000000000000000 ) ) ;
#54 = VECTOR ( 'NONE', #50, 1000.000000000000000 ) ;
#55 = CARTESIAN_POINT ( 'NONE',  ( -12.50000000000000000, 18.99999999999999600, 1.500000000000000000 ) ) ;
#56 = ADVANCED_FACE ( 'NONE', ( #202 ), #126, .F. ) ;
#57 = CARTESIAN_POINT ( 'NONE',  ( 12.50000000000000400, -19.00000000000000400, 0.0000000000000000000 ) ) ;
#58 = PERSON_AND_ORGANIZATION ( #146, #31 ) ;
#59 = EDGE_LOOP ( 'NONE', ( #137, #174, #188, #48 ) ) ;
#60 = APPROVAL_PERSON_ORGANIZATION ( #42, #136, #105 ) ;
#61 = CLOSED_SHELL ( 'NONE', ( #161, #56, #148, #24, #130, #165 ) ) ;
#62 = PRODUCT_DEFINITION_SHAPE ( 'NONE', 'NONE',  #81 ) ;
#63 = MECHANICAL_CONTEXT ( 'NONE', #187, 'mechanical' ) ;
#64 = DIRECTION ( 'NONE',  ( 9.130123557772669600E-017, -1.000000000000000000, 0.0000000000000000000 ) ) ;
#65 = ORIENTED_EDGE ( 'NONE', *, *, #9, .F. ) ;
#66 = PERSON_AND_ORGANIZATION ( #146, #31 ) ;
#67 = DIRECTION ( 'NONE',  ( -1.369518533665900300E-016, 1.000000000000000000, -0.0000000000000000000 ) ) ;
#68 = LINE ( 'NONE', #200, #85 ) ;
#69 = ORIENTED_EDGE ( 'NONE', *, *, #195, .F. ) ;
#70 = AXIS2_PLACEMENT_3D ( 'NONE', #40, #215, #179 ) ;
#71 = LOCAL_TIME ( 10, 19, 48.00000000000000000, #166 ) ;
#72 = EDGE_LOOP ( 'NONE', ( #25, #221, #128, #151 ) ) ;
#73 = AXIS2_PLACEMENT_3D ( 'NONE', #30, #17, #156 ) ;
#74 = CARTESIAN_POINT ( 'NONE',  ( -12.49999999999999600, -19.00000000000000400, 1.500000000000000000 ) ) ;
#75 = DIRECTION ( 'NONE',  ( -0.0000000000000000000, 0.0000000000000000000, 1.000000000000000000 ) ) ;
#76 = LOCAL_TIME ( 10, 19, 48.00000000000000000, #223 ) ;
#77 = VERTEX_POINT ( 'NONE', #207 ) ;
#78 = COORDINATED_UNIVERSAL_TIME_OFFSET ( 5, 0, .BEHIND. ) ;
#79 = ORIENTED_EDGE ( 'NONE', *, *, #152, .T. ) ;
#80 = SECURITY_CLASSIFICATION_LEVEL ( 'unclassified' ) ;
#81 = PRODUCT_DEFINITION ( 'UNKNOWN', '', #163, #20 ) ;
#82 = FACE_OUTER_BOUND ( 'NONE', #72, .T. ) ;
#83 = VERTEX_POINT ( 'NONE', #34 ) ;
#84 = DATE_TIME_ROLE ( 'creation_date' ) ;
#85 = VECTOR ( 'NONE', #180, 1000.000000000000000 ) ;
#86 = EDGE_LOOP ( 'NONE', ( #10, #122, #65, #214 ) ) ;
#87 = DIRECTION ( 'NONE',  ( 0.0000000000000000000, -0.0000000000000000000, 1.000000000000000000 ) ) ;
#88 = ORIENTED_EDGE ( 'NONE', *, *, #168, .F. ) ;
#89 = PRODUCT ( 'Web Model 46706', 'Web Model 46706', '', ( #63 ) ) ;
#90 = VECTOR ( 'NONE', #217, 1000.000000000000000 ) ;
#91 = DIRECTION ( 'NONE',  ( -1.000000000000000000, -0.0000000000000000000, -0.0000000000000000000 ) ) ;
#92 = DIRECTION ( 'NONE',  ( -0.0000000000000000000, -0.0000000000000000000, -1.000000000000000000 ) ) ;
#93 = CARTESIAN_POINT ( 'NONE',  ( -12.49999999999999600, -19.00000000000000400, 0.0000000000000000000 ) ) ;
#94 = DIRECTION ( 'NONE',  ( 1.000000000000000000, 0.0000000000000000000, 0.0000000000000000000 ) ) ;
#95 = VECTOR ( 'NONE', #22, 1000.000000000000000 ) ;
#96 = CC_DESIGN_APPROVAL ( #136, ( #81 ) ) ;
#97 = EDGE_CURVE ( 'NONE', #145, #119, #169, .T. ) ;
#98 = DATE_AND_TIME ( #142, #2 ) ;
#99 = APPLICATION_CONTEXT ( 'configuration controlled 3d designs of mechanical parts and assemblies' ) ;
#100 = ADVANCED_BREP_SHAPE_REPRESENTATION ( 'Web Model 46706', ( #228, #225 ), #201 ) ;
#101 = DATE_AND_TIME ( #160, #71 ) ;
#102 = AXIS2_PLACEMENT_3D ( 'NONE', #114, #147, #216 ) ;
#103 = VECTOR ( 'NONE', #230, 1000.000000000000000 ) ;
#104 = PERSON_AND_ORGANIZATION_ROLE ( 'classification_officer' ) ;
#105 = APPROVAL_ROLE ( '' ) ;
#106 = LOCAL_TIME ( 10, 19, 48.00000000000000000, #78 ) ;
#107 = LINE ( 'NONE', #140, #52 ) ;
#108 = DIRECTION ( 'NONE',  ( 1.000000000000000000, 0.0000000000000000000, 0.0000000000000000000 ) ) ;
#109 = EDGE_CURVE ( 'NONE', #192, #145, #107, .T. ) ;
#110 = CC_DESIGN_PERSON_AND_ORGANIZATION_ASSIGNMENT ( #66, #44, ( #163 ) ) ;
#111 = DIRECTION ( 'NONE',  ( -0.0000000000000000000, -0.0000000000000000000, -1.000000000000000000 ) ) ;
#112 = VECTOR ( 'NONE', #108, 1000.000000000000000 ) ;
#113 = PLANE ( 'NONE',  #102 ) ;
#114 = CARTESIAN_POINT ( 'NONE',  ( -12.50000000000000000, 18.99999999999999600, 1.500000000000000000 ) ) ;
#115 = CC_DESIGN_APPROVAL ( #211, ( #176 ) ) ;
#116 = EDGE_CURVE ( 'NONE', #119, #143, #185, .T. ) ;
#117 = DATE_AND_TIME ( #133, #226 ) ;
#118 = FACE_OUTER_BOUND ( 'NONE', #162, .T. ) ;
#119 = VERTEX_POINT ( 'NONE', #57 ) ;
#120 = ORIENTED_EDGE ( 'NONE', *, *, #195, .T. ) ;
#121 = EDGE_CURVE ( 'NONE', #143, #192, #68, .T. ) ;
#122 = ORIENTED_EDGE ( 'NONE', *, *, #124, .F. ) ;
#123 = CC_DESIGN_DATE_AND_TIME_ASSIGNMENT ( #117, #224, ( #176 ) ) ;
#124 = EDGE_CURVE ( 'NONE', #199, #143, #191, .T. ) ;
#125 = CARTESIAN_POINT ( 'NONE',  ( -12.50000000000000000, 18.99999999999999600, 1.500000000000000000 ) ) ;
#126 = PLANE ( 'NONE',  #73 ) ;
#127 = DIRECTION ( 'NONE',  ( 0.0000000000000000000, 1.000000000000000000, 0.0000000000000000000 ) ) ;
#128 = ORIENTED_EDGE ( 'NONE', *, *, #109, .F. ) ;
#129 = DIRECTION ( 'NONE',  ( -1.000000000000000000, -1.369518533665900100E-016, 0.0000000000000000000 ) ) ;
#130 = ADVANCED_FACE ( 'NONE', ( #118 ), #198, .T. ) ;
#131 = DATE_AND_TIME ( #173, #76 ) ;
#132 = CC_DESIGN_PERSON_AND_ORGANIZATION_ASSIGNMENT ( #58, #104, ( #176 ) ) ;
#133 = CALENDAR_DATE ( 2017, 31, 1 ) ;
#134 = VECTOR ( 'NONE', #111, 1000.000000000000000 ) ;
#135 = ORIENTED_EDGE ( 'NONE', *, *, #234, .T. ) ;
#136 = APPROVAL ( #175, 'UNSPECIFIED' ) ;
#137 = ORIENTED_EDGE ( 'NONE', *, *, #109, .T. ) ;
#138 = LINE ( 'NONE', #51, #134 ) ;
#139 = PERSON_AND_ORGANIZATION ( #146, #31 ) ;
#140 = CARTESIAN_POINT ( 'NONE',  ( -12.50000000000000000, 18.99999999999999600, 0.0000000000000000000 ) ) ;
#141 = CC_DESIGN_PERSON_AND_ORGANIZATION_ASSIGNMENT ( #171, #46, ( #81 ) ) ;
#142 = CALENDAR_DATE ( 2017, 31, 1 ) ;
#143 = VERTEX_POINT ( 'NONE', #237 ) ;
#144 = CARTESIAN_POINT ( 'NONE',  ( -12.49999999999999600, -19.00000000000000400, 1.500000000000000000 ) ) ;
#145 = VERTEX_POINT ( 'NONE', #93 ) ;
#146 = PERSON ( 'UNSPECIFIED', 'UNSPECIFIED', 'UNSPECIFIED', ('UNSPECIFIED'), ('UNSPECIFIED'), ('UNSPECIFIED') ) ;
#147 = DIRECTION ( 'NONE',  ( 1.000000000000000000, 9.130123557772669600E-017, -0.0000000000000000000 ) ) ;
#148 = ADVANCED_FACE ( 'NONE', ( #227 ), #113, .F. ) ;
#149 = CC_DESIGN_DATE_AND_TIME_ASSIGNMENT ( #101, #84, ( #81 ) ) ;
#150 = PLANE ( 'NONE',  #182 ) ;
#151 = ORIENTED_EDGE ( 'NONE', *, *, #121, .F. ) ;
#152 = EDGE_CURVE ( 'NONE', #83, #145, #3, .T. ) ;
#153 = CC_DESIGN_PERSON_AND_ORGANIZATION_ASSIGNMENT ( #14, #194, ( #89 ) ) ;
#154 = CC_DESIGN_APPROVAL ( #1, ( #163 ) ) ;
#155 = CARTESIAN_POINT ( 'NONE',  ( -12.50000000000000000, 18.99999999999999600, 0.0000000000000000000 ) ) ;
#156 = DIRECTION ( 'NONE',  ( 0.0000000000000000000, -0.0000000000000000000, -1.000000000000000000 ) ) ;
#157 = EDGE_CURVE ( 'NONE', #77, #119, #206, .T. ) ;
#158 = ORIENTED_EDGE ( 'NONE', *, *, #121, .T. ) ;
#159 = CARTESIAN_POINT ( 'NONE',  ( 12.50000000000000400, -19.00000000000000400, 0.0000000000000000000 ) ) ;
#160 = CALENDAR_DATE ( 2017, 31, 1 ) ;
#161 = ADVANCED_FACE ( 'NONE', ( #220 ), #150, .F. ) ;
#162 = EDGE_LOOP ( 'NONE', ( #15, #120, #135, #41 ) ) ;
#163 = PRODUCT_DEFINITION_FORMATION_WITH_SPECIFIED_SOURCE ( 'ANY', '', #89, .NOT_KNOWN. ) ;
#164 = DIRECTION ( 'NONE',  ( 0.0000000000000000000, 0.0000000000000000000, 1.000000000000000000 ) ) ;
#165 = ADVANCED_FACE ( 'NONE', ( #82 ), #36, .F. ) ;
#166 = COORDINATED_UNIVERSAL_TIME_OFFSET ( 5, 0, .BEHIND. ) ;
#167 = PRODUCT_RELATED_PRODUCT_CATEGORY ( 'detail', '', ( #89 ) ) ;
#168 = EDGE_CURVE ( 'NONE', #83, #77, #6, .T. ) ;
#169 = LINE ( 'NONE', #172, #112 ) ;
#170 = PERSON_AND_ORGANIZATION_ROLE ( 'creator' ) ;
#171 = PERSON_AND_ORGANIZATION ( #146, #31 ) ;
#172 = CARTESIAN_POINT ( 'NONE',  ( -12.49999999999999600, -19.00000000000000400, 0.0000000000000000000 ) ) ;
#173 = CALENDAR_DATE ( 2017, 31, 1 ) ;
#174 = ORIENTED_EDGE ( 'NONE', *, *, #152, .F. ) ;
#175 = APPROVAL_STATUS ( 'not_yet_approved' ) ;
#176 = SECURITY_CLASSIFICATION ( '', '', #80 ) ;
#177 = VECTOR ( 'NONE', #91, 1000.000000000000000 ) ;
#178 = CARTESIAN_POINT ( 'NONE',  ( 12.49999999999999800, 18.99999999999999600, 0.0000000000000000000 ) ) ;
#179 = DIRECTION ( 'NONE',  ( 1.000000000000000000, 0.0000000000000000000, 0.0000000000000000000 ) ) ;
#180 = DIRECTION ( 'NONE',  ( -1.000000000000000000, -0.0000000000000000000, -0.0000000000000000000 ) ) ;
#181 = DIRECTION ( 'NONE',  ( 1.369518533665900100E-016, -1.000000000000000000, 0.0000000000000000000 ) ) ;
#182 = AXIS2_PLACEMENT_3D ( 'NONE', #236, #129, #181 ) ;
#183 = VECTOR ( 'NONE', #92, 1000.000000000000000 ) ;
#184 = VECTOR ( 'NONE', #67, 1000.000000000000000 ) ;
#185 = LINE ( 'NONE', #178, #103 ) ;
#186 = UNCERTAINTY_MEASURE_WITH_UNIT (LENGTH_MEASURE( 1.000000000000000100E-005 ), #16, 'distance_accuracy_value', 'NONE');
#187 = APPLICATION_CONTEXT ( 'configuration controlled 3d designs of mechanical parts and assemblies' ) ;
#188 = ORIENTED_EDGE ( 'NONE', *, *, #234, .F. ) ;
#189 = COORDINATED_UNIVERSAL_TIME_OFFSET ( 5, 0, .BEHIND. ) ;
#190 = APPROVAL_ROLE ( '' ) ;
#191 = LINE ( 'NONE', #21, #183 ) ;
#192 = VERTEX_POINT ( 'NONE', #155 ) ;
#193 = VECTOR ( 'NONE', #94, 1000.000000000000000 ) ;
#194 = PERSON_AND_ORGANIZATION_ROLE ( 'design_owner' ) ;
#195 = EDGE_CURVE ( 'NONE', #199, #218, #47, .T. ) ;
#196 = PERSON_AND_ORGANIZATION ( #146, #31 ) ;
#197 = PLANE ( 'NONE',  #212 ) ;
#198 = PLANE ( 'NONE',  #70 ) ;
#199 = VERTEX_POINT ( 'NONE', #11 ) ;
#200 = CARTESIAN_POINT ( 'NONE',  ( -12.50000000000000000, 18.99999999999999600, 0.0000000000000000000 ) ) ;
#201 =( GEOMETRIC_REPRESENTATION_CONTEXT ( 3 ) GLOBAL_UNCERTAINTY_ASSIGNED_CONTEXT ( ( #186 ) ) GLOBAL_UNIT_ASSIGNED_CONTEXT ( ( #16, #208, #18 ) ) REPRESENTATION_CONTEXT ( 'NONE', 'WORKASPACE' ) );
#202 = FACE_OUTER_BOUND ( 'NONE', #205, .T. ) ;
#203 = ORIENTED_EDGE ( 'NONE', *, *, #97, .T. ) ;
#204 = APPROVAL_DATE_TIME ( #131, #136 ) ;
#205 = EDGE_LOOP ( 'NONE', ( #158, #32, #69, #29 ) ) ;
#206 = LINE ( 'NONE', #35, #95 ) ;
#207 = CARTESIAN_POINT ( 'NONE',  ( 12.50000000000000400, -19.00000000000000400, 1.500000000000000000 ) ) ;
#208 =( NAMED_UNIT ( * ) PLANE_ANGLE_UNIT ( ) SI_UNIT ( $, .RADIAN. ) );
#209 = CARTESIAN_POINT ( 'NONE',  ( 0.0000000000000000000, 0.0000000000000000000, 0.0000000000000000000 ) ) ;
#210 = CARTESIAN_POINT ( 'NONE',  ( -12.49999999999999600, -19.00000000000000400, 1.500000000000000000 ) ) ;
#211 = APPROVAL ( #28, 'UNSPECIFIED' ) ;
#212 = AXIS2_PLACEMENT_3D ( 'NONE', #210, #127, #87 ) ;
#213 = CARTESIAN_POINT ( 'NONE',  ( 12.49999999999999800, 18.99999999999999600, 1.500000000000000000 ) ) ;
#214 = ORIENTED_EDGE ( 'NONE', *, *, #157, .T. ) ;
#215 = DIRECTION ( 'NONE',  ( -0.0000000000000000000, 0.0000000000000000000, 1.000000000000000000 ) ) ;
#216 = DIRECTION ( 'NONE',  ( -9.130123557772669600E-017, 1.000000000000000000, 0.0000000000000000000 ) ) ;
#217 = DIRECTION ( 'NONE',  ( -0.0000000000000000000, -0.0000000000000000000, -1.000000000000000000 ) ) ;
#218 = VERTEX_POINT ( 'NONE', #53 ) ;
#219 = CC_DESIGN_SECURITY_CLASSIFICATION ( #176, ( #163 ) ) ;
#220 = FACE_OUTER_BOUND ( 'NONE', #86, .T. ) ;
#221 = ORIENTED_EDGE ( 'NONE', *, *, #97, .F. ) ;
#222 = DIRECTION ( 'NONE',  ( 1.000000000000000000, 0.0000000000000000000, 0.0000000000000000000 ) ) ;
#223 = COORDINATED_UNIVERSAL_TIME_OFFSET ( 5, 0, .BEHIND. ) ;
#224 = DATE_TIME_ROLE ( 'classification_date' ) ;
#225 = AXIS2_PLACEMENT_3D ( 'NONE', #209, #164, #222 ) ;
#226 = LOCAL_TIME ( 10, 19, 48.00000000000000000, #49 ) ;
#227 = FACE_OUTER_BOUND ( 'NONE', #59, .T. ) ;
#228 = MANIFOLD_SOLID_BREP ( 'Extrude1', #61 ) ;
#229 = CALENDAR_DATE ( 2017, 31, 1 ) ;
#230 = DIRECTION ( 'NONE',  ( -1.369518533665900300E-016, 1.000000000000000000, -0.0000000000000000000 ) ) ;
#231 = EDGE_CURVE ( 'NONE', #218, #192, #138, .T. ) ;
#232 = PERSON_AND_ORGANIZATION ( #146, #31 ) ;
#233 = LINE ( 'NONE', #213, #184 ) ;
#234 = EDGE_CURVE ( 'NONE', #218, #83, #27, .T. ) ;
#235 = DIRECTION ( 'NONE',  ( 1.000000000000000000, 0.0000000000000000000, 0.0000000000000000000 ) ) ;
#236 = CARTESIAN_POINT ( 'NONE',  ( 12.49999999999999800, 18.99999999999999600, 1.500000000000000000 ) ) ;
#237 = CARTESIAN_POINT ( 'NONE',  ( 12.49999999999999800, 18.99999999999999600, 0.0000000000000000000 ) ) ;
ENDSEC;
END-ISO-10303-21;
