ISO-10303-21;
HEADER;
FILE_DESCRIPTION (( 'STEP AP203' ),
    '1' );
FILE_NAME ('20232-E0W.STEP',
    '2009-09-14T20:13:52',
    ( 'Admin' ),
    ( 'Thorlabs, Inc.' ),
    'SwSTEP 2.0',
    'SolidWorks 2007',
    '' );
FILE_SCHEMA (( 'CONFIG_CONTROL_DESIGN' ));
ENDSEC;

DATA;
#1 = CARTESIAN_POINT ( 'NONE',  ( 0.0000000000000000000, 0.0000000000000000000, 181.7260000000000000 ) ) ;
#2 = AXIS2_PLACEMENT_3D ( 'NONE', #1, #30, #21 ) ;
#3 = CIRCLE ( 'NONE', #2, 179.7260000000000000 ) ;
#4 = CIRCLE ( 'NONE', #34, 12.70000000000000100 ) ;
#5 = DIRECTION ( 'NONE',  ( 0.0000000000000000000, 0.0000000000000000000, 1.000000000000000000 ) ) ;
#6 = DIRECTION ( 'NONE',  ( -1.000000000000000000, 0.0000000000000000000, 0.0000000000000000000 ) ) ;
#7 = CARTESIAN_POINT ( 'NONE',  ( 0.0000000000000000000, 0.0000000000000000000, 217.5740000000000100 ) ) ;
#8 = AXIS2_PLACEMENT_3D ( 'NONE', #7, #11, #10 ) ;
#9 = SPHERICAL_SURFACE ( 'NONE', #8, 219.5740000000000100 ) ;
#10 = DIRECTION ( 'NONE',  ( 0.0000000000000000000, -1.000000000000000000, -1.264064762477748300E-016 ) ) ;
#11 = DIRECTION ( 'NONE',  ( 1.000000000000000000, 0.0000000000000000000, 0.0000000000000000000 ) ) ;
#12 = DIRECTION ( 'NONE',  ( 0.0000000000000000000, -1.836909530733566100E-016, 1.000000000000000000 ) ) ;
#13 = FACE_OUTER_BOUND ( 'NONE', #184, .T. ) ;
#14 = CARTESIAN_POINT ( 'NONE',  ( 0.0000000000000000000, -12.69999999999999900, 1.999999999999997800 ) ) ;
#15 = CARTESIAN_POINT ( 'NONE',  ( 0.0000000000000000000, 0.0000000000000000000, 217.5740000000000100 ) ) ;
#16 = AXIS2_PLACEMENT_3D ( 'NONE', #15, #6, #5 ) ;
#17 = CIRCLE ( 'NONE', #16, 219.5740000000000100 ) ;
#18 = CARTESIAN_POINT ( 'NONE',  ( 0.0000000000000000000, 2.688917155341947400E-014, -2.000000000000001800 ) ) ;
#19 = LINE ( 'NONE', #14, #20 ) ;
#20 = VECTOR ( 'NONE', #12, 1000.000000000000000 ) ;
#21 = DIRECTION ( 'NONE',  ( -1.224606353822377300E-016, -1.000000000000000000, 0.0000000000000000000 ) ) ;
#22 = PERSON_AND_ORGANIZATION ( #134, #133 ) ;
#23 = CC_DESIGN_APPROVAL ( #94, ( #97 ) ) ;
#24 = AXIS2_PLACEMENT_3D ( 'NONE', #25, #27, #28 ) ;
#25 = CARTESIAN_POINT ( 'NONE',  ( 0.0000000000000000000, 0.0000000000000000000, 2.000000000000000000 ) ) ;
#26 = APPROVAL_DATE_TIME ( #88, #94 ) ;
#27 = DIRECTION ( 'NONE',  ( 0.0000000000000000000, -1.836909530733566100E-016, 1.000000000000000000 ) ) ;
#28 = DIRECTION ( 'NONE',  ( 0.0000000000000000000, -1.000000000000000000, -1.707404996040164500E-016 ) ) ;
#29 = DIRECTION ( 'NONE',  ( 0.0000000000000000000, -1.000000000000000000, -1.707404996040164300E-016 ) ) ;
#30 = DIRECTION ( 'NONE',  ( -1.000000000000000000, 1.224606353822377300E-016, 2.249491082733206400E-032 ) ) ;
#31 = CARTESIAN_POINT ( 'NONE',  ( 0.0000000000000000000, -8.252726661812894900E-017, 2.449272352488540200 ) ) ;
#32 = CYLINDRICAL_SURFACE ( 'NONE', #24, 12.69999999999999900 ) ;
#33 = DIRECTION ( 'NONE',  ( 0.0000000000000000000, -1.836909530733566100E-016, 1.000000000000000000 ) ) ;
#34 = AXIS2_PLACEMENT_3D ( 'NONE', #31, #33, #29 ) ;
#35 = DIRECTION ( 'NONE',  ( 0.0000000000000000000, 1.000000000000000000, 1.544327232321918500E-016 ) ) ;
#36 = AXIS2_PLACEMENT_3D ( 'NONE', #37, #38, #35 ) ;
#37 = CARTESIAN_POINT ( 'NONE',  ( 0.0000000000000000000, 0.0000000000000000000, 181.7260000000000000 ) ) ;
#38 = DIRECTION ( 'NONE',  ( -1.000000000000000000, 0.0000000000000000000, 0.0000000000000000000 ) ) ;
#39 = SPHERICAL_SURFACE ( 'NONE', #36, 179.7260000000000000 ) ;
#40 = FACE_OUTER_BOUND ( 'NONE', #193, .T. ) ;
#41 = CC_DESIGN_PERSON_AND_ORGANIZATION_ASSIGNMENT ( #22, #42, ( #97 ) ) ;
#42 = PERSON_AND_ORGANIZATION_ROLE ( 'creator' ) ;
#43 = PERSON_AND_ORGANIZATION_ROLE ( 'design_supplier' ) ;
#44 = PERSON_AND_ORGANIZATION ( #134, #133 ) ;
#45 = CC_DESIGN_PERSON_AND_ORGANIZATION_ASSIGNMENT ( #44, #43, ( #97 ) ) ;
#46 = DIRECTION ( 'NONE',  ( 1.000000000000000000, 0.0000000000000000000, 0.0000000000000000000 ) ) ;
#47 = AXIS2_PLACEMENT_3D ( 'NONE', #70, #46, #51 ) ;
#48 = FACE_OUTER_BOUND ( 'NONE', #189, .T. ) ;
#49 = SPHERICAL_SURFACE ( 'NONE', #47, 219.5740000000000100 ) ;
#50 = CYLINDRICAL_SURFACE ( 'NONE', #61, 12.69999999999999900 ) ;
#51 = DIRECTION ( 'NONE',  ( 0.0000000000000000000, -1.000000000000000000, -1.264064762477748300E-016 ) ) ;
#52 = DIRECTION ( 'NONE',  ( 0.0000000000000000000, -1.000000000000000000, -1.878145495644181100E-016 ) ) ;
#53 = DIRECTION ( 'NONE',  ( 0.0000000000000000000, -1.836909530733566100E-016, 1.000000000000000000 ) ) ;
#54 = CARTESIAN_POINT ( 'NONE',  ( 0.0000000000000000000, 6.672413957334422600E-016, -1.632412944512192700 ) ) ;
#55 = AXIS2_PLACEMENT_3D ( 'NONE', #54, #53, #52 ) ;
#56 = CIRCLE ( 'NONE', #55, 12.69999999999999900 ) ;
#57 = CARTESIAN_POINT ( 'NONE',  ( 0.0000000000000000000, -12.69999999999987100, -1.632412944512192700 ) ) ;
#58 = DIRECTION ( 'NONE',  ( 0.0000000000000000000, -1.000000000000000000, -1.707404996040164500E-016 ) ) ;
#59 = DIRECTION ( 'NONE',  ( 0.0000000000000000000, -1.836909530733566100E-016, 1.000000000000000000 ) ) ;
#60 = CARTESIAN_POINT ( 'NONE',  ( 0.0000000000000000000, 0.0000000000000000000, 2.000000000000000000 ) ) ;
#61 = AXIS2_PLACEMENT_3D ( 'NONE', #60, #59, #58 ) ;
#62 = SECURITY_CLASSIFICATION_LEVEL ( 'unclassified' ) ;
#63 = DIRECTION ( 'NONE',  ( 0.0000000000000000000, -1.000000000000000000, -1.878145495644181100E-016 ) ) ;
#64 = DIRECTION ( 'NONE',  ( 0.0000000000000000000, -1.836909530733566100E-016, 1.000000000000000000 ) ) ;
#65 = CARTESIAN_POINT ( 'NONE',  ( 0.0000000000000000000, 6.672413957334422600E-016, -1.632412944512192700 ) ) ;
#66 = AXIS2_PLACEMENT_3D ( 'NONE', #65, #64, #63 ) ;
#67 = CIRCLE ( 'NONE', #66, 12.69999999999999900 ) ;
#68 = FACE_OUTER_BOUND ( 'NONE', #203, .T. ) ;
#69 = CARTESIAN_POINT ( 'NONE',  ( -1.555250069354424600E-015, -12.70000000000001000, 2.449272352488553100 ) ) ;
#70 = CARTESIAN_POINT ( 'NONE',  ( 0.0000000000000000000, 0.0000000000000000000, 217.5740000000000100 ) ) ;
#71 = FACE_OUTER_BOUND ( 'NONE', #199, .T. ) ;
#72 = DIRECTION ( 'NONE',  ( 0.0000000000000000000, -1.000000000000000000, -1.707404996040164300E-016 ) ) ;
#73 = DIRECTION ( 'NONE',  ( 0.0000000000000000000, -1.836909530733566100E-016, 1.000000000000000000 ) ) ;
#74 = CARTESIAN_POINT ( 'NONE',  ( 0.0000000000000000000, -8.252726661812894900E-017, 2.449272352488540200 ) ) ;
#75 = AXIS2_PLACEMENT_3D ( 'NONE', #74, #73, #72 ) ;
#76 = CIRCLE ( 'NONE', #75, 12.70000000000000100 ) ;
#77 = CARTESIAN_POINT ( 'NONE',  ( 0.0000000000000000000, 12.70000000000004500, 2.449272352488555300 ) ) ;
#78 = DIRECTION ( 'NONE',  ( 0.0000000000000000000, -1.836909530733566100E-016, 1.000000000000000000 ) ) ;
#79 = VECTOR ( 'NONE', #78, 1000.000000000000000 ) ;
#80 = CARTESIAN_POINT ( 'NONE',  ( 1.555250069354419100E-015, 12.69999999999999900, 2.000000000000002200 ) ) ;
#81 = LINE ( 'NONE', #80, #79 ) ;
#82 = CARTESIAN_POINT ( 'NONE',  ( 1.555250069354403300E-015, 12.69999999999991000, -1.632412944512190400 ) ) ;
#83 = SECURITY_CLASSIFICATION ( '', '', #62 ) ;
#84 = CC_DESIGN_PERSON_AND_ORGANIZATION_ASSIGNMENT ( #85, #86, ( #83 ) ) ;
#85 = PERSON_AND_ORGANIZATION ( #134, #133 ) ;
#86 = PERSON_AND_ORGANIZATION_ROLE ( 'classification_officer' ) ;
#87 = DIRECTION ( 'NONE',  ( 1.000000000000000000, 0.0000000000000000000, 0.0000000000000000000 ) ) ;
#88 = DATE_AND_TIME ( #89, #90 ) ;
#89 = CALENDAR_DATE ( 2009, 14, 9 ) ;
#90 = LOCAL_TIME ( 16, 13, 52.00000000000000000, #91 ) ;
#91 = COORDINATED_UNIVERSAL_TIME_OFFSET ( 5, 0, .BEHIND. ) ;
#92 = APPROVAL_PERSON_ORGANIZATION ( #96, #94, #93 ) ;
#93 = APPROVAL_ROLE ( '' ) ;
#94 = APPROVAL ( #95, 'UNSPECIFIED' ) ;
#95 = APPROVAL_STATUS ( 'not_yet_approved' ) ;
#96 = PERSON_AND_ORGANIZATION ( #134, #133 ) ;
#97 = PRODUCT_DEFINITION_FORMATION_WITH_SPECIFIED_SOURCE ( 'ANY', '', #145, .NOT_KNOWN. ) ;
#98 = CC_DESIGN_DATE_AND_TIME_ASSIGNMENT ( #100, #99, ( #126 ) ) ;
#99 = DATE_TIME_ROLE ( 'creation_date' ) ;
#100 = DATE_AND_TIME ( #101, #102 ) ;
#101 = CALENDAR_DATE ( 2009, 14, 9 ) ;
#102 = LOCAL_TIME ( 16, 13, 52.00000000000000000, #103 ) ;
#103 = COORDINATED_UNIVERSAL_TIME_OFFSET ( 5, 0, .BEHIND. ) ;
#104 = CC_DESIGN_PERSON_AND_ORGANIZATION_ASSIGNMENT ( #106, #105, ( #126 ) ) ;
#105 = PERSON_AND_ORGANIZATION_ROLE ( 'creator' ) ;
#106 = PERSON_AND_ORGANIZATION ( #134, #133 ) ;
#107 = CC_DESIGN_APPROVAL ( #123, ( #126 ) ) ;
#108 = APPROVAL_DATE_TIME ( #109, #123 ) ;
#109 = DATE_AND_TIME ( #110, #111 ) ;
#110 = CALENDAR_DATE ( 2009, 14, 9 ) ;
#111 = LOCAL_TIME ( 16, 13, 52.00000000000000000, #112 ) ;
#112 = COORDINATED_UNIVERSAL_TIME_OFFSET ( 5, 0, .BEHIND. ) ;
#113 = APPROVAL_PERSON_ORGANIZATION ( #125, #123, #114 ) ;
#114 = APPROVAL_ROLE ( '' ) ;
#115 = DIRECTION ( 'NONE',  ( 0.0000000000000000000, 0.0000000000000000000, 1.000000000000000000 ) ) ;
#116 = CARTESIAN_POINT ( 'NONE',  ( 0.0000000000000000000, 0.0000000000000000000, 0.0000000000000000000 ) ) ;
#117 = AXIS2_PLACEMENT_3D ( 'NONE', #116, #115, #87 ) ;
#118 = ADVANCED_BREP_SHAPE_REPRESENTATION ( '20232-E0W', ( #188, #117 ), #119 ) ;
#119 =( GEOMETRIC_REPRESENTATION_CONTEXT ( 3 ) GLOBAL_UNCERTAINTY_ASSIGNED_CONTEXT ( ( #120 ) ) GLOBAL_UNIT_ASSIGNED_CONTEXT ( ( #135, #122, #121 ) ) REPRESENTATION_CONTEXT ( 'NONE', 'WORKASPACE' ) );
#120 = UNCERTAINTY_MEASURE_WITH_UNIT (LENGTH_MEASURE( 1.000000000000000100E-005 ), #135, 'distance_accuracy_value', 'NONE');
#121 =( NAMED_UNIT ( * ) SI_UNIT ( $, .STERADIAN. ) SOLID_ANGLE_UNIT ( ) );
#122 =( NAMED_UNIT ( * ) PLANE_ANGLE_UNIT ( ) SI_UNIT ( $, .RADIAN. ) );
#123 = APPROVAL ( #124, 'UNSPECIFIED' ) ;
#124 = APPROVAL_STATUS ( 'not_yet_approved' ) ;
#125 = PERSON_AND_ORGANIZATION ( #134, #133 ) ;
#126 = PRODUCT_DEFINITION ( 'UNKNOWN', '', #97, #127 ) ;
#127 = DESIGN_CONTEXT ( 'detailed design', #129, 'design' ) ;
#128 = APPLICATION_PROTOCOL_DEFINITION ( 'international standard', 'config_control_design', 1994, #129 ) ;
#129 = APPLICATION_CONTEXT ( 'configuration controlled 3d designs of mechanical parts and assemblies' ) ;
#130 = CC_DESIGN_PERSON_AND_ORGANIZATION_ASSIGNMENT ( #132, #131, ( #145 ) ) ;
#131 = PERSON_AND_ORGANIZATION_ROLE ( 'design_owner' ) ;
#132 = PERSON_AND_ORGANIZATION ( #134, #133 ) ;
#133 = ORGANIZATION ( 'UNSPECIFIED', 'UNSPECIFIED', '' ) ;
#134 = PERSON ( 'UNSPECIFIED', 'UNSPECIFIED', 'UNSPECIFIED', ('UNSPECIFIED'), ('UNSPECIFIED'), ('UNSPECIFIED') ) ;
#135 =( LENGTH_UNIT ( ) NAMED_UNIT ( * ) SI_UNIT ( .MILLI., .METRE. ) );
#136 = DIRECTION ( 'NONE',  ( 0.0000000000000000000, 0.0000000000000000000, -1.000000000000000000 ) ) ;
#137 = DIRECTION ( 'NONE',  ( 1.000000000000000000, 0.0000000000000000000, 0.0000000000000000000 ) ) ;
#138 = CARTESIAN_POINT ( 'NONE',  ( 0.0000000000000000000, 0.0000000000000000000, 181.7260000000000000 ) ) ;
#139 = AXIS2_PLACEMENT_3D ( 'NONE', #138, #137, #136 ) ;
#140 = CIRCLE ( 'NONE', #139, 179.7260000000000000 ) ;
#141 = DIRECTION ( 'NONE',  ( 0.0000000000000000000, 1.000000000000000000, 1.544327232321918500E-016 ) ) ;
#142 = DIRECTION ( 'NONE',  ( -1.000000000000000000, 0.0000000000000000000, 0.0000000000000000000 ) ) ;
#143 = AXIS2_PLACEMENT_3D ( 'NONE', #150, #142, #141 ) ;
#144 = SPHERICAL_SURFACE ( 'NONE', #143, 179.7260000000000000 ) ;
#145 = PRODUCT ( '20232-E0W', '20232-E0W', '', ( #146 ) ) ;
#146 = MECHANICAL_CONTEXT ( 'NONE', #148, 'mechanical' ) ;
#147 = APPLICATION_PROTOCOL_DEFINITION ( 'international standard', 'config_control_design', 1994, #148 ) ;
#148 = APPLICATION_CONTEXT ( 'configuration controlled 3d designs of mechanical parts and assemblies' ) ;
#149 = CARTESIAN_POINT ( 'NONE',  ( 0.0000000000000000000, 0.0000000000000000000, 217.5740000000000100 ) ) ;
#150 = CARTESIAN_POINT ( 'NONE',  ( 0.0000000000000000000, 0.0000000000000000000, 181.7260000000000000 ) ) ;
#151 = DIRECTION ( 'NONE',  ( 1.224606353822377300E-016, 1.000000000000000000, 0.0000000000000000000 ) ) ;
#152 = AXIS2_PLACEMENT_3D ( 'NONE', #149, #155, #151 ) ;
#153 = CIRCLE ( 'NONE', #152, 219.5740000000000100 ) ;
#154 = FACE_OUTER_BOUND ( 'NONE', #225, .T. ) ;
#155 = DIRECTION ( 'NONE',  ( 1.000000000000000000, -1.224606353822377300E-016, -2.249491082733206400E-032 ) ) ;
#156 = PRODUCT_RELATED_PRODUCT_CATEGORY ( 'detail', '', ( #145 ) ) ;
#157 = COORDINATED_UNIVERSAL_TIME_OFFSET ( 5, 0, .BEHIND. ) ;
#158 = PRODUCT_DEFINITION_SHAPE ( 'NONE', 'NONE',  #126 ) ;
#159 = CC_DESIGN_DATE_AND_TIME_ASSIGNMENT ( #161, #160, ( #83 ) ) ;
#160 = DATE_TIME_ROLE ( 'classification_date' ) ;
#161 = DATE_AND_TIME ( #162, #163 ) ;
#162 = CALENDAR_DATE ( 2009, 14, 9 ) ;
#163 = LOCAL_TIME ( 16, 13, 52.00000000000000000, #157 ) ;
#164 = APPROVAL ( #165, 'UNSPECIFIED' ) ;
#165 = APPROVAL_STATUS ( 'not_yet_approved' ) ;
#166 = SHAPE_DEFINITION_REPRESENTATION ( #158, #118 ) ;
#167 = CC_DESIGN_SECURITY_CLASSIFICATION ( #83, ( #97 ) ) ;
#168 = PERSON_AND_ORGANIZATION ( #134, #133 ) ;
#169 = CC_DESIGN_APPROVAL ( #164, ( #83 ) ) ;
#170 = APPROVAL_DATE_TIME ( #175, #164 ) ;
#171 = APPROVAL_PERSON_ORGANIZATION ( #168, #164, #172 ) ;
#172 = APPROVAL_ROLE ( '' ) ;
#173 = LOCAL_TIME ( 16, 13, 52.00000000000000000, #174 ) ;
#174 = COORDINATED_UNIVERSAL_TIME_OFFSET ( 5, 0, .BEHIND. ) ;
#175 = DATE_AND_TIME ( #176, #173 ) ;
#176 = CALENDAR_DATE ( 2009, 14, 9 ) ;
#177 = VERTEX_POINT ( 'NONE', #200 ) ;
#178 = ORIENTED_EDGE ( 'NONE', *, *, #190, .T. ) ;
#179 = ORIENTED_EDGE ( 'NONE', *, *, #197, .F. ) ;
#180 = CLOSED_SHELL ( 'NONE', ( #204, #183, #224, #192, #198, #217 ) ) ;
#181 = ORIENTED_EDGE ( 'NONE', *, *, #182, .F. ) ;
#182 = EDGE_CURVE ( 'NONE', #207, #214, #19, .T. ) ;
#183 = ADVANCED_FACE ( 'NONE', ( #13 ), #9, .T. ) ;
#184 = EDGE_LOOP ( 'NONE', ( #185, #221, #223 ) ) ;
#185 = ORIENTED_EDGE ( 'NONE', *, *, #186, .F. ) ;
#186 = EDGE_CURVE ( 'NONE', #187, #207, #17, .T. ) ;
#187 = VERTEX_POINT ( 'NONE', #18 ) ;
#188 = MANIFOLD_SOLID_BREP ( 'NONE', #180 ) ;
#189 = EDGE_LOOP ( 'NONE', ( #205, #209, #212, #181 ) ) ;
#190 = EDGE_CURVE ( 'NONE', #177, #214, #3, .T. ) ;
#191 = ORIENTED_EDGE ( 'NONE', *, *, #213, .T. ) ;
#192 = ADVANCED_FACE ( 'NONE', ( #40 ), #39, .F. ) ;
#193 = EDGE_LOOP ( 'NONE', ( #194, #195, #196 ) ) ;
#194 = ORIENTED_EDGE ( 'NONE', *, *, #190, .F. ) ;
#195 = ORIENTED_EDGE ( 'NONE', *, *, #227, .T. ) ;
#196 = ORIENTED_EDGE ( 'NONE', *, *, #197, .T. ) ;
#197 = EDGE_CURVE ( 'NONE', #211, #214, #4, .T. ) ;
#198 = ADVANCED_FACE ( 'NONE', ( #71 ), #49, .T. ) ;
#199 = EDGE_LOOP ( 'NONE', ( #201, #202, #215 ) ) ;
#200 = CARTESIAN_POINT ( 'NONE',  ( 0.0000000000000000000, 4.401872030941611300E-014, 2.000000000000001800 ) ) ;
#201 = ORIENTED_EDGE ( 'NONE', *, *, #222, .F. ) ;
#202 = ORIENTED_EDGE ( 'NONE', *, *, #186, .T. ) ;
#203 = EDGE_LOOP ( 'NONE', ( #218, #219, #220, #179 ) ) ;
#204 = ADVANCED_FACE ( 'NONE', ( #48 ), #50, .T. ) ;
#205 = ORIENTED_EDGE ( 'NONE', *, *, #206, .T. ) ;
#206 = EDGE_CURVE ( 'NONE', #207, #208, #56, .T. ) ;
#207 = VERTEX_POINT ( 'NONE', #57 ) ;
#208 = VERTEX_POINT ( 'NONE', #82 ) ;
#209 = ORIENTED_EDGE ( 'NONE', *, *, #210, .T. ) ;
#210 = EDGE_CURVE ( 'NONE', #208, #211, #81, .T. ) ;
#211 = VERTEX_POINT ( 'NONE', #77 ) ;
#212 = ORIENTED_EDGE ( 'NONE', *, *, #213, .F. ) ;
#213 = EDGE_CURVE ( 'NONE', #214, #211, #76, .T. ) ;
#214 = VERTEX_POINT ( 'NONE', #69 ) ;
#215 = ORIENTED_EDGE ( 'NONE', *, *, #216, .F. ) ;
#216 = EDGE_CURVE ( 'NONE', #208, #207, #67, .T. ) ;
#217 = ADVANCED_FACE ( 'NONE', ( #68 ), #32, .T. ) ;
#218 = ORIENTED_EDGE ( 'NONE', *, *, #210, .F. ) ;
#219 = ORIENTED_EDGE ( 'NONE', *, *, #216, .T. ) ;
#220 = ORIENTED_EDGE ( 'NONE', *, *, #182, .T. ) ;
#221 = ORIENTED_EDGE ( 'NONE', *, *, #222, .T. ) ;
#222 = EDGE_CURVE ( 'NONE', #187, #208, #153, .T. ) ;
#223 = ORIENTED_EDGE ( 'NONE', *, *, #206, .F. ) ;
#224 = ADVANCED_FACE ( 'NONE', ( #154 ), #144, .F. ) ;
#225 = EDGE_LOOP ( 'NONE', ( #226, #178, #191 ) ) ;
#226 = ORIENTED_EDGE ( 'NONE', *, *, #227, .F. ) ;
#227 = EDGE_CURVE ( 'NONE', #177, #211, #140, .T. ) ;
ENDSEC;
END-ISO-10303-21;
