ISO-10303-21;
HEADER;
FILE_DESCRIPTION (( 'STEP AP203' ),
    '1' );
FILE_NAME ('34430_37021.step',
    '2017-09-06T15:51:29',
    ( '' ),
    ( '' ),
    'SwSTEP 2.0',
    'SolidWorks 2016',
    '' );
FILE_SCHEMA (( 'CONFIG_CONTROL_DESIGN' ));
ENDSEC;

DATA;
#1 = DATE_AND_TIME ( #37, #143 ) ;
#2 = EDGE_LOOP ( 'NONE', ( #57, #141, #31, #12 ) ) ;
#3 = COORDINATED_UNIVERSAL_TIME_OFFSET ( 5, 0, .BEHIND. ) ;
#4 = ORIENTED_EDGE ( 'NONE', *, *, #88, .T. ) ;
#5 = CARTESIAN_POINT ( 'NONE',  ( 25.00000000000000000, 3.061616997868383000E-015, 6.000000000000000000 ) ) ;
#6 = AXIS2_PLACEMENT_3D ( 'NONE', #120, #80, #86 ) ;
#7 = APPLICATION_CONTEXT ( 'configuration controlled 3d designs of mechanical parts and assemblies' ) ;
#8 = APPROVAL_DATE_TIME ( #166, #40 ) ;
#9 = DIRECTION ( 'NONE',  ( 1.000000000000000000, 0.0000000000000000000, 0.0000000000000000000 ) ) ;
#10 = CC_DESIGN_APPROVAL ( #40, ( #83 ) ) ;
#11 = APPLICATION_PROTOCOL_DEFINITION ( 'international standard', 'config_control_design', 1994, #7 ) ;
#12 = ORIENTED_EDGE ( 'NONE', *, *, #105, .T. ) ;
#13 = LOCAL_TIME ( 11, 51, 29.00000000000000000, #3 ) ;
#14 = ORIENTED_EDGE ( 'NONE', *, *, #118, .F. ) ;
#15 = CIRCLE ( 'NONE', #125, 25.00000000000000000 ) ;
#16 = APPROVAL_DATE_TIME ( #149, #46 ) ;
#17 = CC_DESIGN_PERSON_AND_ORGANIZATION_ASSIGNMENT ( #135, #175, ( #72 ) ) ;
#18 = DIRECTION ( 'NONE',  ( 1.000000000000000000, 0.0000000000000000000, 0.0000000000000000000 ) ) ;
#19 = PRODUCT_DEFINITION ( 'UNKNOWN', '', #83, #22 ) ;
#20 = DIRECTION ( 'NONE',  ( 0.0000000000000000000, 0.0000000000000000000, 1.000000000000000000 ) ) ;
#21 = CARTESIAN_POINT ( 'NONE',  ( 0.0000000000000000000, 0.0000000000000000000, 0.0000000000000000000 ) ) ;
#22 = DESIGN_CONTEXT ( 'detailed design', #7, 'design' ) ;
#23 = CARTESIAN_POINT ( 'NONE',  ( 0.0000000000000000000, 0.0000000000000000000, 6.000000000000000000 ) ) ;
#24 = APPROVAL_ROLE ( '' ) ;
#25 = SHAPE_DEFINITION_REPRESENTATION ( #51, #79 ) ;
#26 = AXIS2_PLACEMENT_3D ( 'NONE', #64, #43, #18 ) ;
#27 = FACE_OUTER_BOUND ( 'NONE', #2, .T. ) ;
#28 = PERSON_AND_ORGANIZATION ( #74, #98 ) ;
#29 = AXIS2_PLACEMENT_3D ( 'NONE', #172, #93, #110 ) ;
#30 = LOCAL_TIME ( 11, 51, 29.00000000000000000, #41 ) ;
#31 = ORIENTED_EDGE ( 'NONE', *, *, #118, .T. ) ;
#32 = DIRECTION ( 'NONE',  ( -1.000000000000000000, 0.0000000000000000000, 0.0000000000000000000 ) ) ;
#33 = CALENDAR_DATE ( 2017, 6, 9 ) ;
#34 = CARTESIAN_POINT ( 'NONE',  ( 25.00000000000000000, 3.061616997868383000E-015, 6.000000000000000000 ) ) ;
#35 = MECHANICAL_CONTEXT ( 'NONE', #89, 'mechanical' ) ;
#36 = APPROVAL_STATUS ( 'not_yet_approved' ) ;
#37 = CALENDAR_DATE ( 2017, 6, 9 ) ;
#38 = PERSON_AND_ORGANIZATION ( #74, #98 ) ;
#39 =( GEOMETRIC_REPRESENTATION_CONTEXT ( 3 ) GLOBAL_UNCERTAINTY_ASSIGNED_CONTEXT ( ( #112 ) ) GLOBAL_UNIT_ASSIGNED_CONTEXT ( ( #96, #139, #136 ) ) REPRESENTATION_CONTEXT ( 'NONE', 'WORKASPACE' ) );
#40 = APPROVAL ( #36, 'UNSPECIFIED' ) ;
#41 = COORDINATED_UNIVERSAL_TIME_OFFSET ( 5, 0, .BEHIND. ) ;
#42 = COORDINATED_UNIVERSAL_TIME_OFFSET ( 5, 0, .BEHIND. ) ;
#43 = DIRECTION ( 'NONE',  ( 0.0000000000000000000, 0.0000000000000000000, 1.000000000000000000 ) ) ;
#44 = ADVANCED_FACE ( 'NONE', ( #27 ), #137, .T. ) ;
#45 = CARTESIAN_POINT ( 'NONE',  ( 0.0000000000000000000, 0.0000000000000000000, 6.000000000000000000 ) ) ;
#46 = APPROVAL ( #70, 'UNSPECIFIED' ) ;
#47 = DATE_TIME_ROLE ( 'creation_date' ) ;
#48 = APPROVAL_PERSON_ORGANIZATION ( #127, #40, #163 ) ;
#49 = APPROVAL_STATUS ( 'not_yet_approved' ) ;
#50 = DIRECTION ( 'NONE',  ( 0.0000000000000000000, 0.0000000000000000000, 1.000000000000000000 ) ) ;
#51 = PRODUCT_DEFINITION_SHAPE ( 'NONE', 'NONE',  #19 ) ;
#52 = EDGE_LOOP ( 'NONE', ( #68, #107 ) ) ;
#53 = PRODUCT_RELATED_PRODUCT_CATEGORY ( 'detail', '', ( #72 ) ) ;
#54 = MANIFOLD_SOLID_BREP ( 'Boss-Extrude1', #140 ) ;
#55 = EDGE_LOOP ( 'NONE', ( #116, #104 ) ) ;
#56 = CIRCLE ( 'NONE', #62, 25.00000000000000000 ) ;
#57 = ORIENTED_EDGE ( 'NONE', *, *, #88, .F. ) ;
#58 = COORDINATED_UNIVERSAL_TIME_OFFSET ( 5, 0, .BEHIND. ) ;
#59 = VECTOR ( 'NONE', #131, 1000.000000000000000 ) ;
#60 = LINE ( 'NONE', #170, #165 ) ;
#61 = DIRECTION ( 'NONE',  ( -0.0000000000000000000, -0.0000000000000000000, -1.000000000000000000 ) ) ;
#62 = AXIS2_PLACEMENT_3D ( 'NONE', #108, #82, #111 ) ;
#63 = CARTESIAN_POINT ( 'NONE',  ( -25.00000000000000000, 0.0000000000000000000, 0.0000000000000000000 ) ) ;
#64 = CARTESIAN_POINT ( 'NONE',  ( 0.0000000000000000000, 0.0000000000000000000, 6.000000000000000000 ) ) ;
#65 = AXIS2_PLACEMENT_3D ( 'NONE', #23, #20, #124 ) ;
#66 = PERSON_AND_ORGANIZATION_ROLE ( 'creator' ) ;
#67 = APPROVAL_DATE_TIME ( #103, #129 ) ;
#68 = ORIENTED_EDGE ( 'NONE', *, *, #105, .F. ) ;
#69 = PERSON_AND_ORGANIZATION_ROLE ( 'creator' ) ;
#70 = APPROVAL_STATUS ( 'not_yet_approved' ) ;
#71 = ORIENTED_EDGE ( 'NONE', *, *, #77, .F. ) ;
#72 = PRODUCT ( '34430_37021', '34430_37021', '', ( #35 ) ) ;
#73 = CC_DESIGN_DATE_AND_TIME_ASSIGNMENT ( #1, #47, ( #19 ) ) ;
#74 = PERSON ( 'UNSPECIFIED', 'UNSPECIFIED', 'UNSPECIFIED', ('UNSPECIFIED'), ('UNSPECIFIED'), ('UNSPECIFIED') ) ;
#75 = APPROVAL_PERSON_ORGANIZATION ( #115, #129, #24 ) ;
#76 = FACE_OUTER_BOUND ( 'NONE', #52, .T. ) ;
#77 = EDGE_CURVE ( 'NONE', #130, #117, #144, .T. ) ;
#78 = LOCAL_TIME ( 11, 51, 29.00000000000000000, #42 ) ;
#79 = ADVANCED_BREP_SHAPE_REPRESENTATION ( '34430_37021', ( #54, #138 ), #39 ) ;
#80 = DIRECTION ( 'NONE',  ( -0.0000000000000000000, -0.0000000000000000000, -1.000000000000000000 ) ) ;
#81 = CALENDAR_DATE ( 2017, 6, 9 ) ;
#82 = DIRECTION ( 'NONE',  ( 0.0000000000000000000, 0.0000000000000000000, 1.000000000000000000 ) ) ;
#83 = PRODUCT_DEFINITION_FORMATION_WITH_SPECIFIED_SOURCE ( 'ANY', '', #72, .NOT_KNOWN. ) ;
#84 = PLANE ( 'NONE',  #29 ) ;
#85 = APPROVAL_PERSON_ORGANIZATION ( #90, #46, #87 ) ;
#86 = DIRECTION ( 'NONE',  ( -1.000000000000000000, 0.0000000000000000000, 0.0000000000000000000 ) ) ;
#87 = APPROVAL_ROLE ( '' ) ;
#88 = EDGE_CURVE ( 'NONE', #130, #171, #101, .T. ) ;
#89 = APPLICATION_CONTEXT ( 'configuration controlled 3d designs of mechanical parts and assemblies' ) ;
#90 = PERSON_AND_ORGANIZATION ( #74, #98 ) ;
#91 = FACE_OUTER_BOUND ( 'NONE', #167, .T. ) ;
#92 = CC_DESIGN_APPROVAL ( #46, ( #19 ) ) ;
#93 = DIRECTION ( 'NONE',  ( 0.0000000000000000000, 0.0000000000000000000, 1.000000000000000000 ) ) ;
#94 = CC_DESIGN_DATE_AND_TIME_ASSIGNMENT ( #119, #97, ( #152 ) ) ;
#95 = EDGE_CURVE ( 'NONE', #117, #130, #155, .T. ) ;
#96 =( LENGTH_UNIT ( ) NAMED_UNIT ( * ) SI_UNIT ( .MILLI., .METRE. ) );
#97 = DATE_TIME_ROLE ( 'classification_date' ) ;
#98 = ORGANIZATION ( 'UNSPECIFIED', 'UNSPECIFIED', '' ) ;
#99 = LOCAL_TIME ( 11, 51, 29.00000000000000000, #58 ) ;
#100 = CC_DESIGN_PERSON_AND_ORGANIZATION_ASSIGNMENT ( #28, #69, ( #19 ) ) ;
#101 = LINE ( 'NONE', #5, #59 ) ;
#102 = EDGE_CURVE ( 'NONE', #171, #123, #15, .T. ) ;
#103 = DATE_AND_TIME ( #153, #30 ) ;
#104 = ORIENTED_EDGE ( 'NONE', *, *, #77, .T. ) ;
#105 = EDGE_CURVE ( 'NONE', #123, #171, #56, .T. ) ;
#106 = DIRECTION ( 'NONE',  ( 1.000000000000000000, 0.0000000000000000000, 0.0000000000000000000 ) ) ;
#107 = ORIENTED_EDGE ( 'NONE', *, *, #102, .F. ) ;
#108 = CARTESIAN_POINT ( 'NONE',  ( 0.0000000000000000000, 0.0000000000000000000, 0.0000000000000000000 ) ) ;
#109 = DIRECTION ( 'NONE',  ( 0.0000000000000000000, 0.0000000000000000000, 1.000000000000000000 ) ) ;
#110 = DIRECTION ( 'NONE',  ( 1.000000000000000000, 0.0000000000000000000, -0.0000000000000000000 ) ) ;
#111 = DIRECTION ( 'NONE',  ( 1.000000000000000000, 0.0000000000000000000, 0.0000000000000000000 ) ) ;
#112 = UNCERTAINTY_MEASURE_WITH_UNIT (LENGTH_MEASURE( 1.000000000000000100E-005 ), #96, 'distance_accuracy_value', 'NONE');
#113 = PERSON_AND_ORGANIZATION_ROLE ( 'classification_officer' ) ;
#114 = SECURITY_CLASSIFICATION_LEVEL ( 'unclassified' ) ;
#115 = PERSON_AND_ORGANIZATION ( #74, #98 ) ;
#116 = ORIENTED_EDGE ( 'NONE', *, *, #95, .T. ) ;
#117 = VERTEX_POINT ( 'NONE', #145 ) ;
#118 = EDGE_CURVE ( 'NONE', #117, #123, #60, .T. ) ;
#119 = DATE_AND_TIME ( #174, #99 ) ;
#120 = CARTESIAN_POINT ( 'NONE',  ( 0.0000000000000000000, 0.0000000000000000000, 6.000000000000000000 ) ) ;
#121 = DIRECTION ( 'NONE',  ( -0.0000000000000000000, -0.0000000000000000000, -1.000000000000000000 ) ) ;
#122 = ADVANCED_FACE ( 'NONE', ( #169 ), #173, .T. ) ;
#123 = VERTEX_POINT ( 'NONE', #63 ) ;
#124 = DIRECTION ( 'NONE',  ( 1.000000000000000000, 0.0000000000000000000, -0.0000000000000000000 ) ) ;
#125 = AXIS2_PLACEMENT_3D ( 'NONE', #21, #134, #106 ) ;
#126 = ORIENTED_EDGE ( 'NONE', *, *, #102, .T. ) ;
#127 = PERSON_AND_ORGANIZATION ( #74, #98 ) ;
#128 = CYLINDRICAL_SURFACE ( 'NONE', #148, 25.00000000000000000 ) ;
#129 = APPROVAL ( #49, 'UNSPECIFIED' ) ;
#130 = VERTEX_POINT ( 'NONE', #34 ) ;
#131 = DIRECTION ( 'NONE',  ( -0.0000000000000000000, -0.0000000000000000000, -1.000000000000000000 ) ) ;
#132 = CARTESIAN_POINT ( 'NONE',  ( 25.00000000000000000, 3.061616997868383000E-015, 0.0000000000000000000 ) ) ;
#133 = ADVANCED_FACE ( 'NONE', ( #91 ), #128, .T. ) ;
#134 = DIRECTION ( 'NONE',  ( 0.0000000000000000000, 0.0000000000000000000, 1.000000000000000000 ) ) ;
#135 = PERSON_AND_ORGANIZATION ( #74, #98 ) ;
#136 =( NAMED_UNIT ( * ) SI_UNIT ( $, .STERADIAN. ) SOLID_ANGLE_UNIT ( ) );
#137 = CYLINDRICAL_SURFACE ( 'NONE', #6, 25.00000000000000000 ) ;
#138 = AXIS2_PLACEMENT_3D ( 'NONE', #156, #50, #9 ) ;
#139 =( NAMED_UNIT ( * ) PLANE_ANGLE_UNIT ( ) SI_UNIT ( $, .RADIAN. ) );
#140 = CLOSED_SHELL ( 'NONE', ( #133, #44, #122, #159 ) ) ;
#141 = ORIENTED_EDGE ( 'NONE', *, *, #95, .F. ) ;
#142 = CC_DESIGN_PERSON_AND_ORGANIZATION_ASSIGNMENT ( #154, #66, ( #83 ) ) ;
#143 = LOCAL_TIME ( 11, 51, 29.00000000000000000, #161 ) ;
#144 = CIRCLE ( 'NONE', #26, 25.00000000000000000 ) ;
#145 = CARTESIAN_POINT ( 'NONE',  ( -25.00000000000000000, 0.0000000000000000000, 6.000000000000000000 ) ) ;
#146 = CARTESIAN_POINT ( 'NONE',  ( 0.0000000000000000000, 0.0000000000000000000, 6.000000000000000000 ) ) ;
#147 = PERSON_AND_ORGANIZATION ( #74, #98 ) ;
#148 = AXIS2_PLACEMENT_3D ( 'NONE', #146, #121, #32 ) ;
#149 = DATE_AND_TIME ( #81, #78 ) ;
#150 = APPLICATION_PROTOCOL_DEFINITION ( 'international standard', 'config_control_design', 1994, #89 ) ;
#151 = CC_DESIGN_PERSON_AND_ORGANIZATION_ASSIGNMENT ( #38, #113, ( #152 ) ) ;
#152 = SECURITY_CLASSIFICATION ( '', '', #114 ) ;
#153 = CALENDAR_DATE ( 2017, 6, 9 ) ;
#154 = PERSON_AND_ORGANIZATION ( #74, #98 ) ;
#155 = CIRCLE ( 'NONE', #168, 25.00000000000000000 ) ;
#156 = CARTESIAN_POINT ( 'NONE',  ( 0.0000000000000000000, 0.0000000000000000000, 0.0000000000000000000 ) ) ;
#157 = CC_DESIGN_APPROVAL ( #129, ( #152 ) ) ;
#158 = DIRECTION ( 'NONE',  ( 1.000000000000000000, 0.0000000000000000000, 0.0000000000000000000 ) ) ;
#159 = ADVANCED_FACE ( 'NONE', ( #76 ), #84, .F. ) ;
#160 = PERSON_AND_ORGANIZATION_ROLE ( 'design_supplier' ) ;
#161 = COORDINATED_UNIVERSAL_TIME_OFFSET ( 5, 0, .BEHIND. ) ;
#162 = CC_DESIGN_SECURITY_CLASSIFICATION ( #152, ( #83 ) ) ;
#163 = APPROVAL_ROLE ( '' ) ;
#164 = CC_DESIGN_PERSON_AND_ORGANIZATION_ASSIGNMENT ( #147, #160, ( #83 ) ) ;
#165 = VECTOR ( 'NONE', #61, 1000.000000000000000 ) ;
#166 = DATE_AND_TIME ( #33, #13 ) ;
#167 = EDGE_LOOP ( 'NONE', ( #71, #4, #126, #14 ) ) ;
#168 = AXIS2_PLACEMENT_3D ( 'NONE', #45, #109, #158 ) ;
#169 = FACE_OUTER_BOUND ( 'NONE', #55, .T. ) ;
#170 = CARTESIAN_POINT ( 'NONE',  ( -25.00000000000000000, 0.0000000000000000000, 6.000000000000000000 ) ) ;
#171 = VERTEX_POINT ( 'NONE', #132 ) ;
#172 = CARTESIAN_POINT ( 'NONE',  ( 0.0000000000000000000, 0.0000000000000000000, 0.0000000000000000000 ) ) ;
#173 = PLANE ( 'NONE',  #65 ) ;
#174 = CALENDAR_DATE ( 2017, 6, 9 ) ;
#175 = PERSON_AND_ORGANIZATION_ROLE ( 'design_owner' ) ;
ENDSEC;
END-ISO-10303-21;
