ISO-10303-21;
HEADER;
FILE_DESCRIPTION (( 'STEP AP203' ),
    '1' );
FILE_NAME ('TTN188113-E0W.STEP',
    '2019-10-24T18:02:22',
    ( '' ),
    ( '' ),
    'SwSTEP 2.0',
    'SolidWorks 2018',
    '' );
FILE_SCHEMA (( 'CONFIG_CONTROL_DESIGN' ));
ENDSEC;

DATA;
#1 = DIRECTION ( 'NONE',  ( 1.000000000000000000, 0.0000000000000000000, 0.0000000000000000000 ) ) ;
#2 = CARTESIAN_POINT ( 'NONE',  ( 0.0000000000000000000, 1.062381098260328909E-15, -3.199999999999999734 ) ) ;
#3 = VERTEX_POINT ( 'NONE', #192 ) ;
#4 = APPROVAL ( #100, 'UNSPECIFIED' ) ;
#5 = CARTESIAN_POINT ( 'NONE',  ( -6.099999999999999645, 0.0000000000000000000, 0.0000000000000000000 ) ) ;
#6 = APPROVAL_PERSON_ORGANIZATION ( #87, #213, #220 ) ;
#7 = DIRECTION ( 'NONE',  ( 0.7071067811865439090, 8.659560562354888485E-17, -0.7071067811865512365 ) ) ;
#8 = CYLINDRICAL_SURFACE ( 'NONE', #187, 6.349999999999997868 ) ;
#9 = ORIENTED_EDGE ( 'NONE', *, *, #152, .T. ) ;
#10 = DIRECTION ( 'NONE',  ( -0.0000000000000000000, -0.0000000000000000000, 1.000000000000000000 ) ) ;
#11 = VERTEX_POINT ( 'NONE', #19 ) ;
#12 = APPROVAL_STATUS ( 'not_yet_approved' ) ;
#13 = FACE_OUTER_BOUND ( 'NONE', #174, .T. ) ;
#14 = DIRECTION ( 'NONE',  ( -1.000000000000000000, 0.0000000000000000000, -0.0000000000000000000 ) ) ;
#15 = CIRCLE ( 'NONE', #154, 17.35000000000000142 ) ;
#16 = EDGE_CURVE ( 'NONE', #84, #3, #184, .T. ) ;
#17 = CIRCLE ( 'NONE', #129, 6.099999999999999645 ) ;
#18 = SECURITY_CLASSIFICATION ( '', '', #122 ) ;
#19 = CARTESIAN_POINT ( 'NONE',  ( -6.349999999999997868, 7.776507174585690191E-16, -0.2500000000000011102 ) ) ;
#20 = ORIENTED_EDGE ( 'NONE', *, *, #176, .F. ) ;
#21 = EDGE_LOOP ( 'NONE', ( #209, #105, #99, #133, #205 ) ) ;
#22 = DATE_AND_TIME ( #138, #194 ) ;
#23 = ADVANCED_BREP_SHAPE_REPRESENTATION ( 'TTN188113-E0W', ( #39, #210 ), #92 ) ;
#24 = CARTESIAN_POINT ( 'NONE',  ( 0.0000000000000000000, 0.0000000000000000000, -1.996206984923734939 ) ) ;
#25 = DIRECTION ( 'NONE',  ( 0.0000000000000000000, 0.0000000000000000000, -1.000000000000000000 ) ) ;
#26 = CARTESIAN_POINT ( 'NONE',  ( 0.0000000000000000000, 0.0000000000000000000, 0.0000000000000000000 ) ) ;
#27 = DIRECTION ( 'NONE',  ( -1.000000000000000000, 0.0000000000000000000, 0.0000000000000000000 ) ) ;
#28 = ORIENTED_EDGE ( 'NONE', *, *, #137, .F. ) ;
#29 = CARTESIAN_POINT ( 'NONE',  ( 0.0000000000000000000, 0.0000000000000000000, 0.0000000000000000000 ) ) ;
#30 = EDGE_CURVE ( 'NONE', #130, #11, #75, .T. ) ;
#31 = COORDINATED_UNIVERSAL_TIME_OFFSET ( 5, 0, .BEHIND. ) ;
#32 = CARTESIAN_POINT ( 'NONE',  ( 0.0000000000000000000, 0.0000000000000000000, 0.0000000000000000000 ) ) ;
#33 = CIRCLE ( 'NONE', #120, 6.349999999999996092 ) ;
#34 = PERSON_AND_ORGANIZATION_ROLE ( 'classification_officer' ) ;
#35 = PLANE ( 'NONE',  #271 ) ;
#36 = DIRECTION ( 'NONE',  ( 1.000000000000000000, 0.0000000000000000000, 0.0000000000000000000 ) ) ;
#37 = LOCAL_TIME ( 14, 2, 22.00000000000000000, #61 ) ;
#38 = EDGE_LOOP ( 'NONE', ( #211, #107, #64, #89 ) ) ;
#39 = MANIFOLD_SOLID_BREP ( 'TTN188118-1-solid1', #227 ) ;
#40 = AXIS2_PLACEMENT_3D ( 'NONE', #29, #10, #53 ) ;
#41 = PRODUCT_DEFINITION_SHAPE ( 'NONE', 'NONE',  #146 ) ;
#42 = FACE_OUTER_BOUND ( 'NONE', #199, .T. ) ;
#43 = VECTOR ( 'NONE', #158, 1000.000000000000000 ) ;
#44 = EDGE_LOOP ( 'NONE', ( #140, #212, #127, #54 ) ) ;
#45 = COORDINATED_UNIVERSAL_TIME_OFFSET ( 5, 0, .BEHIND. ) ;
#46 = EDGE_CURVE ( 'NONE', #130, #84, #52, .T. ) ;
#47 = AXIS2_PLACEMENT_3D ( 'NONE', #177, #178, #96 ) ;
#48 = PRODUCT ( 'TTN188113-E0W', 'TTN188113-E0W', '', ( #76 ) ) ;
#49 = CARTESIAN_POINT ( 'NONE',  ( -7.776507174585690191E-16, -6.349999999999996980, -1.996206984923733163 ) ) ;
#50 = DIRECTION ( 'NONE',  ( -1.000000000000000000, 0.0000000000000000000, 0.0000000000000000000 ) ) ;
#51 = PRODUCT_DEFINITION_FORMATION_WITH_SPECIFIED_SOURCE ( 'ANY', '', #48, .NOT_KNOWN. ) ;
#52 = CIRCLE ( 'NONE', #47, 6.349999999999996092 ) ;
#53 = DIRECTION ( 'NONE',  ( -1.000000000000000000, 0.0000000000000000000, 0.0000000000000000000 ) ) ;
#54 = ORIENTED_EDGE ( 'NONE', *, *, #161, .F. ) ;
#55 = DATE_TIME_ROLE ( 'creation_date' ) ;
#56 = CYLINDRICAL_SURFACE ( 'NONE', #229, 6.349999999999997868 ) ;
#57 = AXIS2_PLACEMENT_3D ( 'NONE', #71, #195, #180 ) ;
#58 = CALENDAR_DATE ( 2019, 24, 10 ) ;
#59 = VECTOR ( 'NONE', #131, 1000.000000000000000 ) ;
#60 = ADVANCED_FACE ( 'NONE', ( #148 ), #270, .T. ) ;
#61 = COORDINATED_UNIVERSAL_TIME_OFFSET ( 5, 0, .BEHIND. ) ;
#62 = ORIENTED_EDGE ( 'NONE', *, *, #231, .T. ) ;
#63 = PERSON_AND_ORGANIZATION ( #217, #91 ) ;
#64 = ORIENTED_EDGE ( 'NONE', *, *, #190, .F. ) ;
#65 = CARTESIAN_POINT ( 'NONE',  ( -6.349999999999997868, 7.776507174585690191E-16, 0.0000000000000000000 ) ) ;
#66 = ORIENTED_EDGE ( 'NONE', *, *, #137, .T. ) ;
#67 = CARTESIAN_POINT ( 'NONE',  ( 0.0000000000000000000, 6.349999999999996980, -1.996206984923733163 ) ) ;
#68 = APPROVAL_DATE_TIME ( #22, #175 ) ;
#69 = CARTESIAN_POINT ( 'NONE',  ( 0.0000000000000000000, 0.0000000000000000000, -1.996206984923734939 ) ) ;
#70 = CARTESIAN_POINT ( 'NONE',  ( 0.0000000000000000000, 0.0000000000000000000, -0.2500000000000011102 ) ) ;
#71 = CARTESIAN_POINT ( 'NONE',  ( 0.0000000000000000000, 0.0000000000000000000, -0.2500000000000011102 ) ) ;
#72 = CALENDAR_DATE ( 2019, 24, 10 ) ;
#73 = DIRECTION ( 'NONE',  ( -1.000000000000000000, 0.0000000000000000000, 0.0000000000000000000 ) ) ;
#74 = CC_DESIGN_PERSON_AND_ORGANIZATION_ASSIGNMENT ( #228, #185, ( #146 ) ) ;
#75 = LINE ( 'NONE', #65, #59 ) ;
#76 = MECHANICAL_CONTEXT ( 'NONE', #253, 'mechanical' ) ;
#77 = AXIS2_PLACEMENT_3D ( 'NONE', #163, #257, #101 ) ;
#78 = EDGE_CURVE ( 'NONE', #230, #11, #144, .T. ) ;
#79 = APPLICATION_PROTOCOL_DEFINITION ( 'international standard', 'config_control_design', 1994, #124 ) ;
#80 = ORIENTED_EDGE ( 'NONE', *, *, #46, .T. ) ;
#81 = UNCERTAINTY_MEASURE_WITH_UNIT (LENGTH_MEASURE( 1.000000000000000082E-05 ), #222, 'distance_accuracy_value', 'NONE');
#82 = CC_DESIGN_APPROVAL ( #4, ( #18 ) ) ;
#83 = LINE ( 'NONE', #252, #43 ) ;
#84 = VERTEX_POINT ( 'NONE', #49 ) ;
#85 = DESIGN_CONTEXT ( 'detailed design', #124, 'design' ) ;
#86 = ORIENTED_EDGE ( 'NONE', *, *, #78, .F. ) ;
#87 = PERSON_AND_ORGANIZATION ( #217, #91 ) ;
#88 = LINE ( 'NONE', #136, #114 ) ;
#89 = ORIENTED_EDGE ( 'NONE', *, *, #16, .F. ) ;
#90 = PERSON_AND_ORGANIZATION ( #217, #91 ) ;
#91 = ORGANIZATION ( 'UNSPECIFIED', 'UNSPECIFIED', '' ) ;
#92 =( GEOMETRIC_REPRESENTATION_CONTEXT ( 3 ) GLOBAL_UNCERTAINTY_ASSIGNED_CONTEXT ( ( #81 ) ) GLOBAL_UNIT_ASSIGNED_CONTEXT ( ( #222, #259, #165 ) ) REPRESENTATION_CONTEXT ( 'NONE', 'WORKASPACE' ) );
#93 = CARTESIAN_POINT ( 'NONE',  ( 6.349999999999997868, 0.0000000000000000000, -0.2500000000000011102 ) ) ;
#94 = AXIS2_PLACEMENT_3D ( 'NONE', #118, #50, #97 ) ;
#95 = DIRECTION ( 'NONE',  ( 0.0000000000000000000, 0.0000000000000000000, -1.000000000000000000 ) ) ;
#96 = DIRECTION ( 'NONE',  ( 1.000000000000000000, 0.0000000000000000000, 0.0000000000000000000 ) ) ;
#97 = DIRECTION ( 'NONE',  ( 0.0000000000000000000, 1.000000000000000000, 0.0000000000000000000 ) ) ;
#98 = CARTESIAN_POINT ( 'NONE',  ( 0.0000000000000000000, 0.0000000000000000000, 0.0000000000000000000 ) ) ;
#99 = ORIENTED_EDGE ( 'NONE', *, *, #30, .T. ) ;
#100 = APPROVAL_STATUS ( 'not_yet_approved' ) ;
#101 = DIRECTION ( 'NONE',  ( -1.224646799147353207E-16, -1.000000000000000000, 0.0000000000000000000 ) ) ;
#102 = FACE_OUTER_BOUND ( 'NONE', #169, .T. ) ;
#103 = DIRECTION ( 'NONE',  ( -1.000000000000000000, 0.0000000000000000000, 0.0000000000000000000 ) ) ;
#104 = CC_DESIGN_DATE_AND_TIME_ASSIGNMENT ( #109, #108, ( #18 ) ) ;
#105 = ORIENTED_EDGE ( 'NONE', *, *, #161, .T. ) ;
#106 = DIRECTION ( 'NONE',  ( 1.000000000000000000, 0.0000000000000000000, 0.0000000000000000000 ) ) ;
#107 = ORIENTED_EDGE ( 'NONE', *, *, #182, .T. ) ;
#108 = DATE_TIME_ROLE ( 'classification_date' ) ;
#109 = DATE_AND_TIME ( #72, #145 ) ;
#110 = ADVANCED_FACE ( 'NONE', ( #151 ), #56, .T. ) ;
#111 = CC_DESIGN_PERSON_AND_ORGANIZATION_ASSIGNMENT ( #244, #204, ( #48 ) ) ;
#112 = AXIS2_PLACEMENT_3D ( 'NONE', #70, #159, #197 ) ;
#113 = ADVANCED_FACE ( 'NONE', ( #219 ), #263, .T. ) ;
#114 = VECTOR ( 'NONE', #7, 1000.000000000000000 ) ;
#115 = DATE_AND_TIME ( #254, #150 ) ;
#116 = SHAPE_DEFINITION_REPRESENTATION ( #41, #23 ) ;
#117 = DIRECTION ( 'NONE',  ( -0.7071067811865439090, 0.0000000000000000000, -0.7071067811865512365 ) ) ;
#118 = CARTESIAN_POINT ( 'NONE',  ( 0.0000000000000000000, 0.0000000000000000000, 14.15000000000000036 ) ) ;
#119 = CARTESIAN_POINT ( 'NONE',  ( -6.349999999999996092, 7.776507174585690191E-16, -1.996206984923734939 ) ) ;
#120 = AXIS2_PLACEMENT_3D ( 'NONE', #69, #261, #106 ) ;
#121 = CARTESIAN_POINT ( 'NONE',  ( 0.0000000000000000000, 0.0000000000000000000, -1.996206984923734939 ) ) ;
#122 = SECURITY_CLASSIFICATION_LEVEL ( 'unclassified' ) ;
#123 = ORIENTED_EDGE ( 'NONE', *, *, #78, .T. ) ;
#124 = APPLICATION_CONTEXT ( 'configuration controlled 3d designs of mechanical parts and assemblies' ) ;
#125 = CARTESIAN_POINT ( 'NONE',  ( 0.0000000000000000000, 0.0000000000000000000, 0.0000000000000000000 ) ) ;
#126 = EDGE_CURVE ( 'NONE', #156, #11, #167, .T. ) ;
#127 = ORIENTED_EDGE ( 'NONE', *, *, #46, .F. ) ;
#128 = PERSON_AND_ORGANIZATION ( #217, #91 ) ;
#129 = AXIS2_PLACEMENT_3D ( 'NONE', #98, #233, #249 ) ;
#130 = VERTEX_POINT ( 'NONE', #119 ) ;
#131 = DIRECTION ( 'NONE',  ( -0.0000000000000000000, -0.0000000000000000000, 1.000000000000000000 ) ) ;
#132 = CARTESIAN_POINT ( 'NONE',  ( 0.0000000000000000000, 0.0000000000000000000, 14.15000000000000036 ) ) ;
#133 = ORIENTED_EDGE ( 'NONE', *, *, #171, .T. ) ;
#134 = DIRECTION ( 'NONE',  ( -0.0000000000000000000, -0.0000000000000000000, 1.000000000000000000 ) ) ;
#135 = CARTESIAN_POINT ( 'NONE',  ( 0.0000000000000000000, 0.0000000000000000000, 14.15000000000000036 ) ) ;
#136 = CARTESIAN_POINT ( 'NONE',  ( 6.099999999999999645, 7.470345474798854293E-16, 0.0000000000000000000 ) ) ;
#137 = EDGE_CURVE ( 'NONE', #250, #230, #88, .T. ) ;
#138 = CALENDAR_DATE ( 2019, 24, 10 ) ;
#139 = CARTESIAN_POINT ( 'NONE',  ( 6.099999999999999645, 7.623426324692272242E-16, 0.0000000000000000000 ) ) ;
#140 = ORIENTED_EDGE ( 'NONE', *, *, #182, .F. ) ;
#141 = DIRECTION ( 'NONE',  ( -0.0000000000000000000, -0.0000000000000000000, 1.000000000000000000 ) ) ;
#142 = DATE_AND_TIME ( #246, #37 ) ;
#143 = AXIS2_PLACEMENT_3D ( 'NONE', #32, #208, #103 ) ;
#144 = CIRCLE ( 'NONE', #112, 6.349999999999997868 ) ;
#145 = LOCAL_TIME ( 14, 2, 22.00000000000000000, #45 ) ;
#146 = PRODUCT_DEFINITION ( 'UNKNOWN', '', #51, #85 ) ;
#147 = ADVANCED_FACE ( 'NONE', ( #232 ), #214, .T. ) ;
#148 = FACE_OUTER_BOUND ( 'NONE', #38, .T. ) ;
#149 = VERTEX_POINT ( 'NONE', #2 ) ;
#150 = LOCAL_TIME ( 14, 2, 22.00000000000000000, #31 ) ;
#151 = FACE_OUTER_BOUND ( 'NONE', #21, .T. ) ;
#152 = EDGE_CURVE ( 'NONE', #3, #230, #83, .T. ) ;
#153 = DATE_AND_TIME ( #58, #247 ) ;
#154 = AXIS2_PLACEMENT_3D ( 'NONE', #132, #157, #25 ) ;
#155 = COORDINATED_UNIVERSAL_TIME_OFFSET ( 5, 0, .BEHIND. ) ;
#156 = VERTEX_POINT ( 'NONE', #5 ) ;
#157 = DIRECTION ( 'NONE',  ( 1.000000000000000000, 0.0000000000000000000, 0.0000000000000000000 ) ) ;
#158 = DIRECTION ( 'NONE',  ( -0.0000000000000000000, -0.0000000000000000000, 1.000000000000000000 ) ) ;
#159 = DIRECTION ( 'NONE',  ( 0.0000000000000000000, 0.0000000000000000000, -1.000000000000000000 ) ) ;
#160 = CC_DESIGN_DATE_AND_TIME_ASSIGNMENT ( #142, #55, ( #146 ) ) ;
#161 = EDGE_CURVE ( 'NONE', #226, #130, #168, .T. ) ;
#162 = DIRECTION ( 'NONE',  ( 0.0000000000000000000, 1.000000000000000000, 0.0000000000000000000 ) ) ;
#163 = CARTESIAN_POINT ( 'NONE',  ( 0.0000000000000000000, 0.0000000000000000000, 14.15000000000000036 ) ) ;
#164 = PERSON_AND_ORGANIZATION_ROLE ( 'creator' ) ;
#165 =( NAMED_UNIT ( * ) SI_UNIT ( $, .STERADIAN. ) SOLID_ANGLE_UNIT ( ) );
#166 = APPROVAL_ROLE ( '' ) ;
#167 = LINE ( 'NONE', #235, #221 ) ;
#168 = CIRCLE ( 'NONE', #207, 6.349999999999996092 ) ;
#169 = EDGE_LOOP ( 'NONE', ( #234, #80, #206, #9, #123 ) ) ;
#170 = APPROVAL_DATE_TIME ( #153, #213 ) ;
#171 = EDGE_CURVE ( 'NONE', #11, #230, #193, .T. ) ;
#172 = PERSON_AND_ORGANIZATION ( #217, #91 ) ;
#173 = CC_DESIGN_PERSON_AND_ORGANIZATION_ASSIGNMENT ( #63, #34, ( #18 ) ) ;
#174 = EDGE_LOOP ( 'NONE', ( #28, #179, #258, #86 ) ) ;
#175 = APPROVAL ( #239, 'UNSPECIFIED' ) ;
#176 = EDGE_CURVE ( 'NONE', #250, #156, #17, .T. ) ;
#177 = CARTESIAN_POINT ( 'NONE',  ( 0.0000000000000000000, 0.0000000000000000000, -1.996206984923734939 ) ) ;
#178 = DIRECTION ( 'NONE',  ( -0.0000000000000000000, -0.0000000000000000000, 1.000000000000000000 ) ) ;
#179 = ORIENTED_EDGE ( 'NONE', *, *, #231, .F. ) ;
#180 = DIRECTION ( 'NONE',  ( -1.000000000000000000, 0.0000000000000000000, 0.0000000000000000000 ) ) ;
#181 = DIRECTION ( 'NONE',  ( 1.000000000000000000, 0.0000000000000000000, 0.0000000000000000000 ) ) ;
#182 = EDGE_CURVE ( 'NONE', #149, #226, #15, .T. ) ;
#183 = DIRECTION ( 'NONE',  ( 0.0000000000000000000, 0.0000000000000000000, -1.000000000000000000 ) ) ;
#184 = CIRCLE ( 'NONE', #256, 6.349999999999996092 ) ;
#185 = PERSON_AND_ORGANIZATION_ROLE ( 'creator' ) ;
#186 = ORIENTED_EDGE ( 'NONE', *, *, #176, .T. ) ;
#187 = AXIS2_PLACEMENT_3D ( 'NONE', #241, #141, #36 ) ;
#188 = EDGE_LOOP ( 'NONE', ( #20, #66, #251, #266 ) ) ;
#189 = CC_DESIGN_APPROVAL ( #175, ( #146 ) ) ;
#190 = EDGE_CURVE ( 'NONE', #3, #226, #33, .T. ) ;
#191 = APPROVAL_DATE_TIME ( #115, #4 ) ;
#192 = CARTESIAN_POINT ( 'NONE',  ( 6.349999999999996092, 0.0000000000000000000, -1.996206984923734939 ) ) ;
#193 = CIRCLE ( 'NONE', #57, 6.349999999999997868 ) ;
#194 = LOCAL_TIME ( 14, 2, 22.00000000000000000, #155 ) ;
#195 = DIRECTION ( 'NONE',  ( 0.0000000000000000000, 0.0000000000000000000, -1.000000000000000000 ) ) ;
#196 = DIRECTION ( 'NONE',  ( -0.0000000000000000000, -0.0000000000000000000, 1.000000000000000000 ) ) ;
#197 = DIRECTION ( 'NONE',  ( -1.000000000000000000, 0.0000000000000000000, 0.0000000000000000000 ) ) ;
#198 = DIRECTION ( 'NONE',  ( -0.0000000000000000000, -0.0000000000000000000, 1.000000000000000000 ) ) ;
#199 = EDGE_LOOP ( 'NONE', ( #62, #186 ) ) ;
#200 = DIRECTION ( 'NONE',  ( 0.0000000000000000000, 0.0000000000000000000, 1.000000000000000000 ) ) ;
#201 = CONICAL_SURFACE ( 'NONE', #143, 6.099999999999999645, 0.7853981633974431720 ) ;
#202 = CC_DESIGN_SECURITY_CLASSIFICATION ( #18, ( #51 ) ) ;
#203 = DIRECTION ( 'NONE',  ( 1.000000000000000000, 0.0000000000000000000, 0.0000000000000000000 ) ) ;
#204 = PERSON_AND_ORGANIZATION_ROLE ( 'design_owner' ) ;
#205 = ORIENTED_EDGE ( 'NONE', *, *, #152, .F. ) ;
#206 = ORIENTED_EDGE ( 'NONE', *, *, #16, .T. ) ;
#207 = AXIS2_PLACEMENT_3D ( 'NONE', #121, #134, #1 ) ;
#208 = DIRECTION ( 'NONE',  ( 0.0000000000000000000, 0.0000000000000000000, -1.000000000000000000 ) ) ;
#209 = ORIENTED_EDGE ( 'NONE', *, *, #190, .T. ) ;
#210 = AXIS2_PLACEMENT_3D ( 'NONE', #240, #200, #203 ) ;
#211 = ORIENTED_EDGE ( 'NONE', *, *, #269, .F. ) ;
#212 = ORIENTED_EDGE ( 'NONE', *, *, #269, .T. ) ;
#213 = APPROVAL ( #12, 'UNSPECIFIED' ) ;
#214 = SPHERICAL_SURFACE ( 'NONE', #265, 17.35000000000000142 ) ;
#215 = AXIS2_PLACEMENT_3D ( 'NONE', #216, #95, #73 ) ;
#216 = CARTESIAN_POINT ( 'NONE',  ( 0.0000000000000000000, 0.0000000000000000000, 0.0000000000000000000 ) ) ;
#217 = PERSON ( 'UNSPECIFIED', 'UNSPECIFIED', 'UNSPECIFIED', ('UNSPECIFIED'), ('UNSPECIFIED'), ('UNSPECIFIED') ) ;
#218 = DIRECTION ( 'NONE',  ( 1.000000000000000000, 0.0000000000000000000, 0.0000000000000000000 ) ) ;
#219 = FACE_OUTER_BOUND ( 'NONE', #188, .T. ) ;
#220 = APPROVAL_ROLE ( '' ) ;
#221 = VECTOR ( 'NONE', #117, 1000.000000000000000 ) ;
#222 =( LENGTH_UNIT ( ) NAMED_UNIT ( * ) SI_UNIT ( .MILLI., .METRE. ) );
#223 = PERSON_AND_ORGANIZATION_ROLE ( 'design_supplier' ) ;
#224 = CC_DESIGN_APPROVAL ( #213, ( #51 ) ) ;
#225 = PERSON_AND_ORGANIZATION ( #217, #91 ) ;
#226 = VERTEX_POINT ( 'NONE', #67 ) ;
#227 = CLOSED_SHELL ( 'NONE', ( #113, #147, #110, #260, #242, #60, #245 ) ) ;
#228 = PERSON_AND_ORGANIZATION ( #217, #91 ) ;
#229 = AXIS2_PLACEMENT_3D ( 'NONE', #26, #196, #181 ) ;
#230 = VERTEX_POINT ( 'NONE', #93 ) ;
#231 = EDGE_CURVE ( 'NONE', #156, #250, #268, .T. ) ;
#232 = FACE_OUTER_BOUND ( 'NONE', #44, .T. ) ;
#233 = DIRECTION ( 'NONE',  ( -0.0000000000000000000, -0.0000000000000000000, 1.000000000000000000 ) ) ;
#234 = ORIENTED_EDGE ( 'NONE', *, *, #30, .F. ) ;
#235 = CARTESIAN_POINT ( 'NONE',  ( -6.099999999999999645, 0.0000000000000000000, 0.0000000000000000000 ) ) ;
#236 = CC_DESIGN_PERSON_AND_ORGANIZATION_ASSIGNMENT ( #225, #223, ( #51 ) ) ;
#237 = APPROVAL_ROLE ( '' ) ;
#238 = APPLICATION_PROTOCOL_DEFINITION ( 'international standard', 'config_control_design', 1994, #253 ) ;
#239 = APPROVAL_STATUS ( 'not_yet_approved' ) ;
#240 = CARTESIAN_POINT ( 'NONE',  ( 0.0000000000000000000, 0.0000000000000000000, 0.0000000000000000000 ) ) ;
#241 = CARTESIAN_POINT ( 'NONE',  ( 0.0000000000000000000, 0.0000000000000000000, 0.0000000000000000000 ) ) ;
#242 = ADVANCED_FACE ( 'NONE', ( #102 ), #8, .T. ) ;
#243 = COORDINATED_UNIVERSAL_TIME_OFFSET ( 5, 0, .BEHIND. ) ;
#244 = PERSON_AND_ORGANIZATION ( #217, #91 ) ;
#245 = ADVANCED_FACE ( 'NONE', ( #13 ), #201, .T. ) ;
#246 = CALENDAR_DATE ( 2019, 24, 10 ) ;
#247 = LOCAL_TIME ( 14, 2, 22.00000000000000000, #243 ) ;
#248 = CIRCLE ( 'NONE', #77, 17.35000000000000142 ) ;
#249 = DIRECTION ( 'NONE',  ( -1.000000000000000000, 0.0000000000000000000, 0.0000000000000000000 ) ) ;
#250 = VERTEX_POINT ( 'NONE', #139 ) ;
#251 = ORIENTED_EDGE ( 'NONE', *, *, #171, .F. ) ;
#252 = CARTESIAN_POINT ( 'NONE',  ( 6.349999999999997868, 0.0000000000000000000, 0.0000000000000000000 ) ) ;
#253 = APPLICATION_CONTEXT ( 'configuration controlled 3d designs of mechanical parts and assemblies' ) ;
#254 = CALENDAR_DATE ( 2019, 24, 10 ) ;
#255 = APPROVAL_PERSON_ORGANIZATION ( #128, #175, #166 ) ;
#256 = AXIS2_PLACEMENT_3D ( 'NONE', #24, #198, #218 ) ;
#257 = DIRECTION ( 'NONE',  ( -1.000000000000000000, 1.224646799147353207E-16, 0.0000000000000000000 ) ) ;
#258 = ORIENTED_EDGE ( 'NONE', *, *, #126, .T. ) ;
#259 =( NAMED_UNIT ( * ) PLANE_ANGLE_UNIT ( ) SI_UNIT ( $, .RADIAN. ) );
#260 = ADVANCED_FACE ( 'NONE', ( #42 ), #35, .F. ) ;
#261 = DIRECTION ( 'NONE',  ( -0.0000000000000000000, -0.0000000000000000000, 1.000000000000000000 ) ) ;
#262 = CC_DESIGN_PERSON_AND_ORGANIZATION_ASSIGNMENT ( #172, #164, ( #51 ) ) ;
#263 = CONICAL_SURFACE ( 'NONE', #215, 6.099999999999999645, 0.7853981633974431720 ) ;
#264 = PRODUCT_RELATED_PRODUCT_CATEGORY ( 'detail', '', ( #48 ) ) ;
#265 = AXIS2_PLACEMENT_3D ( 'NONE', #135, #27, #162 ) ;
#266 = ORIENTED_EDGE ( 'NONE', *, *, #126, .F. ) ;
#267 = APPROVAL_PERSON_ORGANIZATION ( #90, #4, #237 ) ;
#268 = CIRCLE ( 'NONE', #40, 6.099999999999999645 ) ;
#269 = EDGE_CURVE ( 'NONE', #149, #84, #248, .T. ) ;
#270 = SPHERICAL_SURFACE ( 'NONE', #94, 17.35000000000000142 ) ;
#271 = AXIS2_PLACEMENT_3D ( 'NONE', #125, #183, #14 ) ;
ENDSEC;
END-ISO-10303-21;
