ISO-10303-21;
HEADER;
FILE_DESCRIPTION (( 'STEP AP203' ),
    '1' );
FILE_NAME ('Web Model 12661_12664.step',
    '2019-03-20T20:55:52',
    ( '' ),
    ( '' ),
    'SwSTEP 2.0',
    'SolidWorks 2018',
    '' );
FILE_SCHEMA (( 'CONFIG_CONTROL_DESIGN' ));
ENDSEC;

DATA;
#1 = EDGE_CURVE ( 'NONE', #168, #173, #133, .T. ) ;
#2 = PRODUCT ( 'Web Model 12661_12664', 'Web Model 12661_12664', '', ( #154 ) ) ;
#3 = DATE_AND_TIME ( #55, #34 ) ;
#4 = PERSON_AND_ORGANIZATION_ROLE ( 'creator' ) ;
#5 = PERSON_AND_ORGANIZATION ( #127, #118 ) ;
#6 = ORIENTED_EDGE ( 'NONE', *, *, #38, .F. ) ;
#7 = AXIS2_PLACEMENT_3D ( 'NONE', #174, #128, #53 ) ;
#8 = FACE_OUTER_BOUND ( 'NONE', #85, .T. ) ;
#9 = APPROVAL_STATUS ( 'not_yet_approved' ) ;
#10 = LINE ( 'NONE', #170, #41 ) ;
#11 = AXIS2_PLACEMENT_3D ( 'NONE', #60, #159, #119 ) ;
#12 = ORIENTED_EDGE ( 'NONE', *, *, #87, .F. ) ;
#13 =( GEOMETRIC_REPRESENTATION_CONTEXT ( 3 ) GLOBAL_UNCERTAINTY_ASSIGNED_CONTEXT ( ( #72 ) ) GLOBAL_UNIT_ASSIGNED_CONTEXT ( ( #52, #109, #23 ) ) REPRESENTATION_CONTEXT ( 'NONE', 'WORKASPACE' ) );
#14 = DESIGN_CONTEXT ( 'detailed design', #42, 'design' ) ;
#15 = AXIS2_PLACEMENT_3D ( 'NONE', #175, #66, #112 ) ;
#16 = PLANE ( 'NONE',  #11 ) ;
#17 = DIRECTION ( 'NONE',  ( -0.0000000000000000000, -0.0000000000000000000, -1.000000000000000000 ) ) ;
#18 = CALENDAR_DATE ( 2019, 20, 3 ) ;
#19 = EDGE_CURVE ( 'NONE', #134, #173, #95, .T. ) ;
#20 = DIRECTION ( 'NONE',  ( 1.000000000000000000, 0.0000000000000000000, 0.0000000000000000000 ) ) ;
#21 = CALENDAR_DATE ( 2019, 20, 3 ) ;
#22 = ORIENTED_EDGE ( 'NONE', *, *, #56, .F. ) ;
#23 =( NAMED_UNIT ( * ) SI_UNIT ( $, .STERADIAN. ) SOLID_ANGLE_UNIT ( ) );
#24 = PRODUCT_DEFINITION_FORMATION_WITH_SPECIFIED_SOURCE ( 'ANY', '', #2, .NOT_KNOWN. ) ;
#25 = DIRECTION ( 'NONE',  ( -0.0000000000000000000, -0.0000000000000000000, -1.000000000000000000 ) ) ;
#26 = LOCAL_TIME ( 16, 55, 52.00000000000000000, #57 ) ;
#27 = CARTESIAN_POINT ( 'NONE',  ( 0.0000000000000000000, 0.0000000000000000000, 0.0000000000000000000 ) ) ;
#28 = CLOSED_SHELL ( 'NONE', ( #160, #65, #152, #93 ) ) ;
#29 = APPROVAL ( #108, 'UNSPECIFIED' ) ;
#30 = PERSON_AND_ORGANIZATION ( #127, #118 ) ;
#31 = ORIENTED_EDGE ( 'NONE', *, *, #87, .T. ) ;
#32 = ORIENTED_EDGE ( 'NONE', *, *, #19, .F. ) ;
#33 = CC_DESIGN_DATE_AND_TIME_ASSIGNMENT ( #104, #124, ( #169 ) ) ;
#34 = LOCAL_TIME ( 16, 55, 52.00000000000000000, #70 ) ;
#35 = CARTESIAN_POINT ( 'NONE',  ( 0.0000000000000000000, 0.0000000000000000000, 3.000000000000000000 ) ) ;
#36 = COORDINATED_UNIVERSAL_TIME_OFFSET ( 5, 0, .BEHIND. ) ;
#37 = DIRECTION ( 'NONE',  ( 1.000000000000000000, 0.0000000000000000000, 0.0000000000000000000 ) ) ;
#38 = EDGE_CURVE ( 'NONE', #47, #134, #10, .T. ) ;
#39 = APPLICATION_CONTEXT ( 'configuration controlled 3d designs of mechanical parts and assemblies' ) ;
#40 = PERSON_AND_ORGANIZATION_ROLE ( 'design_owner' ) ;
#41 = VECTOR ( 'NONE', #17, 1000.000000000000000 ) ;
#42 = APPLICATION_CONTEXT ( 'configuration controlled 3d designs of mechanical parts and assemblies' ) ;
#43 = AXIS2_PLACEMENT_3D ( 'NONE', #77, #91, #89 ) ;
#44 = PRODUCT_RELATED_PRODUCT_CATEGORY ( 'detail', '', ( #2 ) ) ;
#45 = PERSON_AND_ORGANIZATION ( #127, #118 ) ;
#46 = CC_DESIGN_PERSON_AND_ORGANIZATION_ASSIGNMENT ( #30, #80, ( #169 ) ) ;
#47 = VERTEX_POINT ( 'NONE', #92 ) ;
#48 = FACE_OUTER_BOUND ( 'NONE', #51, .T. ) ;
#49 = PERSON_AND_ORGANIZATION ( #127, #118 ) ;
#50 = VECTOR ( 'NONE', #136, 1000.000000000000000 ) ;
#51 = EDGE_LOOP ( 'NONE', ( #125, #31 ) ) ;
#52 =( LENGTH_UNIT ( ) NAMED_UNIT ( * ) SI_UNIT ( .MILLI., .METRE. ) );
#53 = DIRECTION ( 'NONE',  ( 1.000000000000000000, 0.0000000000000000000, -0.0000000000000000000 ) ) ;
#54 = EDGE_LOOP ( 'NONE', ( #32, #146 ) ) ;
#55 = CALENDAR_DATE ( 2019, 20, 3 ) ;
#56 = EDGE_CURVE ( 'NONE', #47, #168, #71, .T. ) ;
#57 = COORDINATED_UNIVERSAL_TIME_OFFSET ( 5, 0, .BEHIND. ) ;
#58 = AXIS2_PLACEMENT_3D ( 'NONE', #27, #82, #151 ) ;
#59 = SHAPE_DEFINITION_REPRESENTATION ( #102, #131 ) ;
#60 = CARTESIAN_POINT ( 'NONE',  ( 0.0000000000000000000, 0.0000000000000000000, 0.0000000000000000000 ) ) ;
#61 = PRODUCT_DEFINITION ( 'UNKNOWN', '', #24, #14 ) ;
#62 = CALENDAR_DATE ( 2019, 20, 3 ) ;
#63 = APPROVAL_ROLE ( '' ) ;
#64 = LOCAL_TIME ( 16, 55, 52.00000000000000000, #36 ) ;
#65 = ADVANCED_FACE ( 'NONE', ( #8 ), #144, .T. ) ;
#66 = DIRECTION ( 'NONE',  ( 0.0000000000000000000, 0.0000000000000000000, 1.000000000000000000 ) ) ;
#67 = AXIS2_PLACEMENT_3D ( 'NONE', #161, #172, #149 ) ;
#68 = PERSON_AND_ORGANIZATION_ROLE ( 'design_supplier' ) ;
#69 = APPROVAL_PERSON_ORGANIZATION ( #107, #157, #63 ) ;
#70 = COORDINATED_UNIVERSAL_TIME_OFFSET ( 5, 0, .BEHIND. ) ;
#71 = CIRCLE ( 'NONE', #81, 12.70000000000000462 ) ;
#72 = UNCERTAINTY_MEASURE_WITH_UNIT (LENGTH_MEASURE( 1.000000000000000082E-05 ), #52, 'distance_accuracy_value', 'NONE');
#73 = AXIS2_PLACEMENT_3D ( 'NONE', #35, #105, #37 ) ;
#74 = APPROVAL_DATE_TIME ( #116, #103 ) ;
#75 = CARTESIAN_POINT ( 'NONE',  ( -12.70000000000000462, 0.0000000000000000000, 0.0000000000000000000 ) ) ;
#76 = FACE_OUTER_BOUND ( 'NONE', #84, .T. ) ;
#77 = CARTESIAN_POINT ( 'NONE',  ( 0.0000000000000000000, 0.0000000000000000000, 3.000000000000000000 ) ) ;
#78 = PERSON_AND_ORGANIZATION_ROLE ( 'creator' ) ;
#79 = CIRCLE ( 'NONE', #73, 12.70000000000000462 ) ;
#80 = PERSON_AND_ORGANIZATION_ROLE ( 'classification_officer' ) ;
#81 = AXIS2_PLACEMENT_3D ( 'NONE', #138, #106, #20 ) ;
#82 = DIRECTION ( 'NONE',  ( 0.0000000000000000000, 0.0000000000000000000, 1.000000000000000000 ) ) ;
#83 = PERSON_AND_ORGANIZATION ( #127, #118 ) ;
#84 = EDGE_LOOP ( 'NONE', ( #12, #130, #114, #6 ) ) ;
#85 = EDGE_LOOP ( 'NONE', ( #117, #22, #167, #141 ) ) ;
#86 = APPROVAL_DATE_TIME ( #3, #157 ) ;
#87 = EDGE_CURVE ( 'NONE', #168, #47, #79, .T. ) ;
#88 = MANIFOLD_SOLID_BREP ( '84715410-1-solid1', #28 ) ;
#89 = DIRECTION ( 'NONE',  ( -1.000000000000000000, 0.0000000000000000000, 0.0000000000000000000 ) ) ;
#90 = AXIS2_PLACEMENT_3D ( 'NONE', #140, #25, #123 ) ;
#91 = DIRECTION ( 'NONE',  ( -0.0000000000000000000, -0.0000000000000000000, -1.000000000000000000 ) ) ;
#92 = CARTESIAN_POINT ( 'NONE',  ( -12.70000000000000462, 0.0000000000000000000, 3.000000000000000000 ) ) ;
#93 = ADVANCED_FACE ( 'NONE', ( #100 ), #16, .F. ) ;
#94 = DATE_TIME_ROLE ( 'creation_date' ) ;
#95 = CIRCLE ( 'NONE', #67, 12.70000000000000462 ) ;
#96 = SECURITY_CLASSIFICATION_LEVEL ( 'unclassified' ) ;
#97 = PLANE ( 'NONE',  #7 ) ;
#98 = LOCAL_TIME ( 16, 55, 52.00000000000000000, #145 ) ;
#99 = CC_DESIGN_PERSON_AND_ORGANIZATION_ASSIGNMENT ( #5, #4, ( #61 ) ) ;
#100 = FACE_OUTER_BOUND ( 'NONE', #54, .T. ) ;
#101 = CALENDAR_DATE ( 2019, 20, 3 ) ;
#102 = PRODUCT_DEFINITION_SHAPE ( 'NONE', 'NONE',  #61 ) ;
#103 = APPROVAL ( #9, 'UNSPECIFIED' ) ;
#104 = DATE_AND_TIME ( #18, #98 ) ;
#105 = DIRECTION ( 'NONE',  ( 0.0000000000000000000, 0.0000000000000000000, 1.000000000000000000 ) ) ;
#106 = DIRECTION ( 'NONE',  ( 0.0000000000000000000, 0.0000000000000000000, 1.000000000000000000 ) ) ;
#107 = PERSON_AND_ORGANIZATION ( #127, #118 ) ;
#108 = APPROVAL_STATUS ( 'not_yet_approved' ) ;
#109 =( NAMED_UNIT ( * ) PLANE_ANGLE_UNIT ( ) SI_UNIT ( $, .RADIAN. ) );
#110 = CARTESIAN_POINT ( 'NONE',  ( 12.70000000000000462, 1.555301434917139024E-15, 3.000000000000000000 ) ) ;
#111 = COORDINATED_UNIVERSAL_TIME_OFFSET ( 5, 0, .BEHIND. ) ;
#112 = DIRECTION ( 'NONE',  ( 1.000000000000000000, 0.0000000000000000000, 0.0000000000000000000 ) ) ;
#113 = APPLICATION_PROTOCOL_DEFINITION ( 'international standard', 'config_control_design', 1994, #42 ) ;
#114 = ORIENTED_EDGE ( 'NONE', *, *, #120, .T. ) ;
#115 = CC_DESIGN_PERSON_AND_ORGANIZATION_ASSIGNMENT ( #83, #68, ( #24 ) ) ;
#116 = DATE_AND_TIME ( #101, #121 ) ;
#117 = ORIENTED_EDGE ( 'NONE', *, *, #1, .F. ) ;
#118 = ORGANIZATION ( 'UNSPECIFIED', 'UNSPECIFIED', '' ) ;
#119 = DIRECTION ( 'NONE',  ( 1.000000000000000000, 0.0000000000000000000, -0.0000000000000000000 ) ) ;
#120 = EDGE_CURVE ( 'NONE', #173, #134, #166, .T. ) ;
#121 = LOCAL_TIME ( 16, 55, 52.00000000000000000, #111 ) ;
#122 = CARTESIAN_POINT ( 'NONE',  ( 12.70000000000000462, 1.555301434917139024E-15, 3.000000000000000000 ) ) ;
#123 = DIRECTION ( 'NONE',  ( -1.000000000000000000, 0.0000000000000000000, 0.0000000000000000000 ) ) ;
#124 = DATE_TIME_ROLE ( 'classification_date' ) ;
#125 = ORIENTED_EDGE ( 'NONE', *, *, #56, .T. ) ;
#126 = CC_DESIGN_APPROVAL ( #103, ( #61 ) ) ;
#127 = PERSON ( 'UNSPECIFIED', 'UNSPECIFIED', 'UNSPECIFIED', ('UNSPECIFIED'), ('UNSPECIFIED'), ('UNSPECIFIED') ) ;
#128 = DIRECTION ( 'NONE',  ( 0.0000000000000000000, 0.0000000000000000000, 1.000000000000000000 ) ) ;
#129 = PERSON_AND_ORGANIZATION ( #127, #118 ) ;
#130 = ORIENTED_EDGE ( 'NONE', *, *, #1, .T. ) ;
#131 = ADVANCED_BREP_SHAPE_REPRESENTATION ( 'Web Model 12661_12664', ( #88, #58 ), #13 ) ;
#132 = APPROVAL_DATE_TIME ( #171, #29 ) ;
#133 = LINE ( 'NONE', #122, #50 ) ;
#134 = VERTEX_POINT ( 'NONE', #75 ) ;
#135 = CC_DESIGN_SECURITY_CLASSIFICATION ( #169, ( #24 ) ) ;
#136 = DIRECTION ( 'NONE',  ( -0.0000000000000000000, -0.0000000000000000000, -1.000000000000000000 ) ) ;
#137 = APPROVAL_PERSON_ORGANIZATION ( #165, #29, #143 ) ;
#138 = CARTESIAN_POINT ( 'NONE',  ( 0.0000000000000000000, 0.0000000000000000000, 3.000000000000000000 ) ) ;
#139 = CC_DESIGN_APPROVAL ( #157, ( #24 ) ) ;
#140 = CARTESIAN_POINT ( 'NONE',  ( 0.0000000000000000000, 0.0000000000000000000, 3.000000000000000000 ) ) ;
#141 = ORIENTED_EDGE ( 'NONE', *, *, #19, .T. ) ;
#142 = APPROVAL_ROLE ( '' ) ;
#143 = APPROVAL_ROLE ( '' ) ;
#144 = CYLINDRICAL_SURFACE ( 'NONE', #43, 12.70000000000000462 ) ;
#145 = COORDINATED_UNIVERSAL_TIME_OFFSET ( 5, 0, .BEHIND. ) ;
#146 = ORIENTED_EDGE ( 'NONE', *, *, #120, .F. ) ;
#147 = DATE_AND_TIME ( #21, #64 ) ;
#148 = CC_DESIGN_PERSON_AND_ORGANIZATION_ASSIGNMENT ( #49, #78, ( #24 ) ) ;
#149 = DIRECTION ( 'NONE',  ( 1.000000000000000000, 0.0000000000000000000, 0.0000000000000000000 ) ) ;
#150 = CC_DESIGN_DATE_AND_TIME_ASSIGNMENT ( #147, #94, ( #61 ) ) ;
#151 = DIRECTION ( 'NONE',  ( 1.000000000000000000, 0.0000000000000000000, 0.0000000000000000000 ) ) ;
#152 = ADVANCED_FACE ( 'NONE', ( #48 ), #97, .T. ) ;
#153 = APPLICATION_PROTOCOL_DEFINITION ( 'international standard', 'config_control_design', 1994, #39 ) ;
#154 = MECHANICAL_CONTEXT ( 'NONE', #39, 'mechanical' ) ;
#155 = APPROVAL_PERSON_ORGANIZATION ( #129, #103, #142 ) ;
#156 = CARTESIAN_POINT ( 'NONE',  ( 12.70000000000000462, 1.555301434917139024E-15, 0.0000000000000000000 ) ) ;
#157 = APPROVAL ( #163, 'UNSPECIFIED' ) ;
#158 = CYLINDRICAL_SURFACE ( 'NONE', #90, 12.70000000000000462 ) ;
#159 = DIRECTION ( 'NONE',  ( 0.0000000000000000000, 0.0000000000000000000, 1.000000000000000000 ) ) ;
#160 = ADVANCED_FACE ( 'NONE', ( #76 ), #158, .T. ) ;
#161 = CARTESIAN_POINT ( 'NONE',  ( 0.0000000000000000000, 0.0000000000000000000, 0.0000000000000000000 ) ) ;
#162 = CC_DESIGN_PERSON_AND_ORGANIZATION_ASSIGNMENT ( #45, #40, ( #2 ) ) ;
#163 = APPROVAL_STATUS ( 'not_yet_approved' ) ;
#164 = CC_DESIGN_APPROVAL ( #29, ( #169 ) ) ;
#165 = PERSON_AND_ORGANIZATION ( #127, #118 ) ;
#166 = CIRCLE ( 'NONE', #15, 12.70000000000000462 ) ;
#167 = ORIENTED_EDGE ( 'NONE', *, *, #38, .T. ) ;
#168 = VERTEX_POINT ( 'NONE', #110 ) ;
#169 = SECURITY_CLASSIFICATION ( '', '', #96 ) ;
#170 = CARTESIAN_POINT ( 'NONE',  ( -12.70000000000000462, 0.0000000000000000000, 3.000000000000000000 ) ) ;
#171 = DATE_AND_TIME ( #62, #26 ) ;
#172 = DIRECTION ( 'NONE',  ( 0.0000000000000000000, 0.0000000000000000000, 1.000000000000000000 ) ) ;
#173 = VERTEX_POINT ( 'NONE', #156 ) ;
#174 = CARTESIAN_POINT ( 'NONE',  ( 0.0000000000000000000, 0.0000000000000000000, 3.000000000000000000 ) ) ;
#175 = CARTESIAN_POINT ( 'NONE',  ( 0.0000000000000000000, 0.0000000000000000000, 0.0000000000000000000 ) ) ;
ENDSEC;
END-ISO-10303-21;
