ISO-10303-21;
HEADER;
FILE_DESCRIPTION (( 'STEP AP203' ),
    '1' );
FILE_NAME ('TTN206861-E0W.STEP',
    '2020-08-18T15:15:20',
    ( '' ),
    ( '' ),
    'SwSTEP 2.0',
    'SolidWorks 2018',
    '' );
FILE_SCHEMA (( 'CONFIG_CONTROL_DESIGN' ));
ENDSEC;

DATA;
#1 = EDGE_CURVE ( 'NONE', #123, #247, #170, .T. ) ;
#2 = PRODUCT_DEFINITION_SHAPE ( 'NONE', 'NONE',  #259 ) ;
#3 = CARTESIAN_POINT ( 'NONE',  ( 1.555301434917138433E-15, -12.69999999999999929, 1.376126508755122657 ) ) ;
#4 = VERTEX_POINT ( 'NONE', #207 ) ;
#5 = ORGANIZATION ( 'UNSPECIFIED', 'UNSPECIFIED', '' ) ;
#6 = DIRECTION ( 'NONE',  ( 0.0000000000000000000, -1.000000000000000000, -3.073328992872296367E-16 ) ) ;
#7 = EDGE_CURVE ( 'NONE', #4, #198, #234, .T. ) ;
#8 = VERTEX_POINT ( 'NONE', #85 ) ;
#9 = DIRECTION ( 'NONE',  ( 0.0000000000000000000, -1.000000000000000000, -3.122332725382669026E-16 ) ) ;
#10 = APPLICATION_PROTOCOL_DEFINITION ( 'international standard', 'config_control_design', 1994, #162 ) ;
#11 = COORDINATED_UNIVERSAL_TIME_OFFSET ( 5, 0, .BEHIND. ) ;
#12 = AXIS2_PLACEMENT_3D ( 'NONE', #51, #184, #14 ) ;
#13 = ORIENTED_EDGE ( 'NONE', *, *, #256, .F. ) ;
#14 = DIRECTION ( 'NONE',  ( 0.0000000000000000000, -1.000000000000000000, -3.122502256758251784E-16 ) ) ;
#15 = CARTESIAN_POINT ( 'NONE',  ( 0.0000000000000000000, 12.69999999999999929, 1.376126508755130651 ) ) ;
#16 = APPROVAL_ROLE ( '' ) ;
#17 = DIRECTION ( 'NONE',  ( -0.0000000000000000000, 3.061515884555943146E-16, -1.000000000000000000 ) ) ;
#18 = AXIS2_PLACEMENT_3D ( 'NONE', #131, #136, #30 ) ;
#19 = SHAPE_DEFINITION_REPRESENTATION ( #2, #285 ) ;
#20 = AXIS2_PLACEMENT_3D ( 'NONE', #177, #58, #9 ) ;
#21 = ORIENTED_EDGE ( 'NONE', *, *, #121, .T. ) ;
#22 = DIRECTION ( 'NONE',  ( 0.0000000000000000000, 1.000000000000000000, 3.957562861367532226E-16 ) ) ;
#23 = AXIS2_PLACEMENT_3D ( 'NONE', #55, #286, #115 ) ;
#24 = EDGE_CURVE ( 'NONE', #198, #212, #258, .T. ) ;
#25 = CALENDAR_DATE ( 2020, 18, 8 ) ;
#26 = CIRCLE ( 'NONE', #23, 12.50000000000000355 ) ;
#27 = CARTESIAN_POINT ( 'NONE',  ( 1.555301434917138433E-15, -12.69999999999999929, -1.000000000000003997 ) ) ;
#28 = ORIENTED_EDGE ( 'NONE', *, *, #112, .T. ) ;
#29 = CARTESIAN_POINT ( 'NONE',  ( 0.0000000000000000000, -1.742198475328943389E-14, 141.2659999999999911 ) ) ;
#30 = DIRECTION ( 'NONE',  ( 0.0000000000000000000, 1.000000000000000000, 3.073328992872296367E-16 ) ) ;
#31 = SECURITY_CLASSIFICATION_LEVEL ( 'unclassified' ) ;
#32 = APPROVAL_DATE_TIME ( #111, #109 ) ;
#33 = APPLICATION_PROTOCOL_DEFINITION ( 'international standard', 'config_control_design', 1994, #179 ) ;
#34 = EDGE_LOOP ( 'NONE', ( #159, #48 ) ) ;
#35 = APPROVAL_ROLE ( '' ) ;
#36 = EDGE_CURVE ( 'NONE', #151, #294, #251, .T. ) ;
#37 = APPROVAL_STATUS ( 'not_yet_approved' ) ;
#38 = DIRECTION ( 'NONE',  ( 1.000000000000000000, 0.0000000000000000000, -0.0000000000000000000 ) ) ;
#39 = DIRECTION ( 'NONE',  ( 0.0000000000000000000, -1.000000000000000000, -3.122502256758251784E-16 ) ) ;
#40 = CLOSED_SHELL ( 'NONE', ( #239, #297, #68, #97, #193, #235, #93, #122, #95 ) ) ;
#41 = DIRECTION ( 'NONE',  ( 0.0000000000000000000, 1.000000000000000000, 3.957562861367532226E-16 ) ) ;
#42 = APPROVAL_STATUS ( 'not_yet_approved' ) ;
#43 = AXIS2_PLACEMENT_3D ( 'NONE', #29, #223, #172 ) ;
#44 = MANIFOLD_SOLID_BREP ( 'TTN206872-1-solid1', #40 ) ;
#45 = COORDINATED_UNIVERSAL_TIME_OFFSET ( 5, 0, .BEHIND. ) ;
#46 = FACE_OUTER_BOUND ( 'NONE', #102, .T. ) ;
#47 = CC_DESIGN_APPROVAL ( #174, ( #225 ) ) ;
#48 = ORIENTED_EDGE ( 'NONE', *, *, #256, .T. ) ;
#49 = DIRECTION ( 'NONE',  ( 0.0000000000000000000, -1.000000000000000000, -3.073328992872296367E-16 ) ) ;
#50 = VECTOR ( 'NONE', #17, 1000.000000000000000 ) ;
#51 = CARTESIAN_POINT ( 'NONE',  ( 0.0000000000000000000, 1.836909530733571311E-16, -1.000000000000001998 ) ) ;
#52 = CYLINDRICAL_SURFACE ( 'NONE', #18, 12.69999999999999929 ) ;
#53 = ORIENTED_EDGE ( 'NONE', *, *, #293, .T. ) ;
#54 = LOCAL_TIME ( 11, 15, 20.00000000000000000, #45 ) ;
#55 = CARTESIAN_POINT ( 'NONE',  ( 0.0000000000000000000, 1.836909530733571064E-16, -1.000000000000001998 ) ) ;
#56 = EDGE_CURVE ( 'NONE', #151, #123, #166, .T. ) ;
#57 = CARTESIAN_POINT ( 'NONE',  ( 1.530891616299772605E-15, -12.50067870479583121, 1.558148438538129676 ) ) ;
#58 = DIRECTION ( 'NONE',  ( 0.0000000000000000000, -3.061515884555935257E-16, 1.000000000000000000 ) ) ;
#59 =( NAMED_UNIT ( * ) PLANE_ANGLE_UNIT ( ) SI_UNIT ( $, .RADIAN. ) );
#60 = PERSON_AND_ORGANIZATION ( #119, #5 ) ;
#61 = MECHANICAL_CONTEXT ( 'NONE', #179, 'mechanical' ) ;
#62 = ORIENTED_EDGE ( 'NONE', *, *, #129, .F. ) ;
#63 = DIRECTION ( 'NONE',  ( -1.000000000000000000, 0.0000000000000000000, 0.0000000000000000000 ) ) ;
#64 = CARTESIAN_POINT ( 'NONE',  ( 1.555301434917138433E-15, -12.69999999999999929, 1.376126508755122657 ) ) ;
#65 = UNCERTAINTY_MEASURE_WITH_UNIT (LENGTH_MEASURE( 1.000000000000000082E-05 ), #289, 'distance_accuracy_value', 'NONE');
#66 = AXIS2_PLACEMENT_3D ( 'NONE', #139, #157, #89 ) ;
#67 = CC_DESIGN_APPROVAL ( #109, ( #78 ) ) ;
#68 = ADVANCED_FACE ( 'NONE', ( #192 ), #154, .F. ) ;
#69 = LINE ( 'NONE', #138, #220 ) ;
#70 = APPROVAL ( #37, 'UNSPECIFIED' ) ;
#71 = PRODUCT ( 'TTN206861-E0W', 'TTN206861-E0W', '', ( #61 ) ) ;
#72 = AXIS2_PLACEMENT_3D ( 'NONE', #194, #125, #49 ) ;
#73 = CIRCLE ( 'NONE', #255, 12.69999999999999929 ) ;
#74 = EDGE_CURVE ( 'NONE', #198, #4, #260, .T. ) ;
#75 = PERSON_AND_ORGANIZATION ( #119, #5 ) ;
#76 = EDGE_LOOP ( 'NONE', ( #271, #210, #62 ) ) ;
#77 = CARTESIAN_POINT ( 'NONE',  ( 0.0000000000000000000, 1.224606353822417687E-16, -0.8000000000000134781 ) ) ;
#78 = PRODUCT_DEFINITION_FORMATION_WITH_SPECIFIED_SOURCE ( 'ANY', '', #71, .NOT_KNOWN. ) ;
#79 = FACE_OUTER_BOUND ( 'NONE', #34, .T. ) ;
#80 = APPROVAL_STATUS ( 'not_yet_approved' ) ;
#81 = DIRECTION ( 'NONE',  ( 0.0000000000000000000, 0.0000000000000000000, 1.000000000000000000 ) ) ;
#82 = CALENDAR_DATE ( 2020, 18, 8 ) ;
#83 = CIRCLE ( 'NONE', #155, 140.2659999999999911 ) ;
#84 = CARTESIAN_POINT ( 'NONE',  ( 0.0000000000000000000, 12.69999999999999929, -0.8000000000000095923 ) ) ;
#85 = CARTESIAN_POINT ( 'NONE',  ( 0.0000000000000000000, -12.50000000000000355, -1.000000000000005773 ) ) ;
#86 = CARTESIAN_POINT ( 'NONE',  ( 0.0000000000000000000, -5.437639519534689438E-16, 1.376126508755126654 ) ) ;
#87 = CARTESIAN_POINT ( 'NONE',  ( 0.0000000000000000000, 1.836909530733571311E-16, -1.000000000000001998 ) ) ;
#88 = FACE_OUTER_BOUND ( 'NONE', #133, .T. ) ;
#89 = DIRECTION ( 'NONE',  ( 0.0000000000000000000, -1.000000000000000000, -3.122332725382669026E-16 ) ) ;
#90 = AXIS2_PLACEMENT_3D ( 'NONE', #86, #222, #261 ) ;
#91 = LINE ( 'NONE', #3, #265 ) ;
#92 = CONICAL_SURFACE ( 'NONE', #142, 12.50000000000000355, 0.7853981633974653764 ) ;
#93 = ADVANCED_FACE ( 'NONE', ( #147 ), #205, .F. ) ;
#94 = CC_DESIGN_PERSON_AND_ORGANIZATION_ASSIGNMENT ( #60, #200, ( #225 ) ) ;
#95 = ADVANCED_FACE ( 'NONE', ( #117 ), #276, .T. ) ;
#96 = ORIENTED_EDGE ( 'NONE', *, *, #7, .F. ) ;
#97 = ADVANCED_FACE ( 'NONE', ( #88 ), #273, .T. ) ;
#98 = CARTESIAN_POINT ( 'NONE',  ( 1.530808498934191719E-15, 12.50000000000000355, -0.9999999999999981126 ) ) ;
#99 = DATE_AND_TIME ( #287, #299 ) ;
#100 =( GEOMETRIC_REPRESENTATION_CONTEXT ( 3 ) GLOBAL_UNCERTAINTY_ASSIGNED_CONTEXT ( ( #65 ) ) GLOBAL_UNIT_ASSIGNED_CONTEXT ( ( #289, #59, #156 ) ) REPRESENTATION_CONTEXT ( 'NONE', 'WORKASPACE' ) );
#101 = FACE_OUTER_BOUND ( 'NONE', #209, .T. ) ;
#102 = EDGE_LOOP ( 'NONE', ( #149, #237, #214, #21 ) ) ;
#103 = EDGE_CURVE ( 'NONE', #8, #291, #175, .T. ) ;
#104 = DIRECTION ( 'NONE',  ( -0.0000000000000000000, 3.061515884555935257E-16, -1.000000000000000000 ) ) ;
#105 = DIRECTION ( 'NONE',  ( 0.0000000000000000000, 1.000000000000000000, 3.073328992872296367E-16 ) ) ;
#106 = LINE ( 'NONE', #98, #148 ) ;
#107 = ORIENTED_EDGE ( 'NONE', *, *, #129, .T. ) ;
#108 = AXIS2_PLACEMENT_3D ( 'NONE', #110, #134, #248 ) ;
#109 = APPROVAL ( #42, 'UNSPECIFIED' ) ;
#110 = CARTESIAN_POINT ( 'NONE',  ( 0.0000000000000000000, 1.836909530733565148E-16, -1.000000000000000000 ) ) ;
#111 = DATE_AND_TIME ( #82, #211 ) ;
#112 = EDGE_CURVE ( 'NONE', #291, #247, #106, .T. ) ;
#113 = ORIENTED_EDGE ( 'NONE', *, *, #36, .T. ) ;
#114 = DIRECTION ( 'NONE',  ( 0.0000000000000000000, -3.061515884555943146E-16, 1.000000000000000000 ) ) ;
#115 = DIRECTION ( 'NONE',  ( 0.0000000000000000000, 1.000000000000000000, 3.122502256758251784E-16 ) ) ;
#116 = PERSON_AND_ORGANIZATION ( #119, #5 ) ;
#117 = FACE_OUTER_BOUND ( 'NONE', #236, .T. ) ;
#118 = AXIS2_PLACEMENT_3D ( 'NONE', #160, #81, #153 ) ;
#119 = PERSON ( 'UNSPECIFIED', 'UNSPECIFIED', 'UNSPECIFIED', ('UNSPECIFIED'), ('UNSPECIFIED'), ('UNSPECIFIED') ) ;
#120 = FACE_OUTER_BOUND ( 'NONE', #282, .T. ) ;
#121 = EDGE_CURVE ( 'NONE', #247, #294, #284, .T. ) ;
#122 = ADVANCED_FACE ( 'NONE', ( #262 ), #92, .T. ) ;
#123 = VERTEX_POINT ( 'NONE', #15 ) ;
#124 = CC_DESIGN_APPROVAL ( #70, ( #259 ) ) ;
#125 = DIRECTION ( 'NONE',  ( -0.0000000000000000000, 3.061515884555935257E-16, -1.000000000000000000 ) ) ;
#126 = AXIS2_PLACEMENT_3D ( 'NONE', #298, #168, #22 ) ;
#127 = CC_DESIGN_DATE_AND_TIME_ASSIGNMENT ( #189, #204, ( #225 ) ) ;
#128 = APPROVAL_PERSON_ORGANIZATION ( #158, #109, #16 ) ;
#129 = EDGE_CURVE ( 'NONE', #4, #212, #83, .T. ) ;
#130 = DATE_AND_TIME ( #195, #54 ) ;
#131 = CARTESIAN_POINT ( 'NONE',  ( 0.0000000000000000000, 1.836909530733565148E-16, -1.000000000000000000 ) ) ;
#132 = ORIENTED_EDGE ( 'NONE', *, *, #277, .T. ) ;
#133 = EDGE_LOOP ( 'NONE', ( #53, #113, #145, #164 ) ) ;
#134 = DIRECTION ( 'NONE',  ( -0.0000000000000000000, 3.061515884555943146E-16, -1.000000000000000000 ) ) ;
#135 = DIRECTION ( 'NONE',  ( 0.0000000000000000000, 1.000000000000000000, 3.122502256758251784E-16 ) ) ;
#136 = DIRECTION ( 'NONE',  ( -0.0000000000000000000, 3.061515884555943146E-16, -1.000000000000000000 ) ) ;
#137 = LINE ( 'NONE', #199, #232 ) ;
#138 = CARTESIAN_POINT ( 'NONE',  ( 0.0000000000000000000, 12.69999999999999929, 1.376126508755130651 ) ) ;
#139 = CARTESIAN_POINT ( 'NONE',  ( 0.0000000000000000000, 2.534979592197039093E-14, 1.558148438538131675 ) ) ;
#140 = CARTESIAN_POINT ( 'NONE',  ( 0.0000000000000000000, 1.224606353822417687E-16, -0.8000000000000134781 ) ) ;
#141 = CARTESIAN_POINT ( 'NONE',  ( 0.0000000000000000000, 12.69999999999999929, -0.9999999999999961142 ) ) ;
#142 = AXIS2_PLACEMENT_3D ( 'NONE', #87, #292, #39 ) ;
#143 = COORDINATED_UNIVERSAL_TIME_OFFSET ( 5, 0, .BEHIND. ) ;
#144 = ORIENTED_EDGE ( 'NONE', *, *, #226, .F. ) ;
#145 = ORIENTED_EDGE ( 'NONE', *, *, #280, .T. ) ;
#146 = PERSON_AND_ORGANIZATION ( #119, #5 ) ;
#147 = FACE_OUTER_BOUND ( 'NONE', #270, .T. ) ;
#148 = VECTOR ( 'NONE', #283, 1000.000000000000114 ) ;
#149 = ORIENTED_EDGE ( 'NONE', *, *, #36, .F. ) ;
#150 = COORDINATED_UNIVERSAL_TIME_OFFSET ( 5, 0, .BEHIND. ) ;
#151 = VERTEX_POINT ( 'NONE', #64 ) ;
#152 = CARTESIAN_POINT ( 'NONE',  ( 0.0000000000000000000, 1.836909530733571064E-16, -1.000000000000001998 ) ) ;
#153 = DIRECTION ( 'NONE',  ( 1.000000000000000000, 0.0000000000000000000, 0.0000000000000000000 ) ) ;
#154 = SPHERICAL_SURFACE ( 'NONE', #126, 140.2659999999999911 ) ;
#155 = AXIS2_PLACEMENT_3D ( 'NONE', #187, #63, #231 ) ;
#156 =( NAMED_UNIT ( * ) SI_UNIT ( $, .STERADIAN. ) SOLID_ANGLE_UNIT ( ) );
#157 = DIRECTION ( 'NONE',  ( 0.0000000000000000000, -3.061515884555935257E-16, 1.000000000000000000 ) ) ;
#158 = PERSON_AND_ORGANIZATION ( #119, #5 ) ;
#159 = ORIENTED_EDGE ( 'NONE', *, *, #103, .T. ) ;
#160 = CARTESIAN_POINT ( 'NONE',  ( 0.0000000000000000000, 0.0000000000000000000, 0.0000000000000000000 ) ) ;
#161 = APPROVAL_ROLE ( '' ) ;
#162 = APPLICATION_CONTEXT ( 'configuration controlled 3d designs of mechanical parts and assemblies' ) ;
#163 = DIRECTION ( 'NONE',  ( 0.0000000000000000000, 1.000000000000000000, 3.073328992872296367E-16 ) ) ;
#164 = ORIENTED_EDGE ( 'NONE', *, *, #1, .F. ) ;
#165 = ORIENTED_EDGE ( 'NONE', *, *, #202, .T. ) ;
#166 = CIRCLE ( 'NONE', #72, 12.69999999999999929 ) ;
#167 = ORIENTED_EDGE ( 'NONE', *, *, #293, .F. ) ;
#168 = DIRECTION ( 'NONE',  ( 1.000000000000000000, 0.0000000000000000000, -0.0000000000000000000 ) ) ;
#169 = APPROVAL_PERSON_ORGANIZATION ( #233, #70, #35 ) ;
#170 = LINE ( 'NONE', #141, #50 ) ;
#171 = ORIENTED_EDGE ( 'NONE', *, *, #226, .T. ) ;
#172 = DIRECTION ( 'NONE',  ( -1.224646799147353207E-16, 1.000000000000000000, 0.0000000000000000000 ) ) ;
#173 = DIRECTION ( 'NONE',  ( -0.0000000000000000000, 3.061515884555943146E-16, -1.000000000000000000 ) ) ;
#174 = APPROVAL ( #80, 'UNSPECIFIED' ) ;
#175 = CIRCLE ( 'NONE', #253, 12.50000000000000355 ) ;
#176 = ORIENTED_EDGE ( 'NONE', *, *, #112, .F. ) ;
#177 = CARTESIAN_POINT ( 'NONE',  ( 0.0000000000000000000, 2.534979592197039093E-14, 1.558148438538131675 ) ) ;
#178 = CALENDAR_DATE ( 2020, 18, 8 ) ;
#179 = APPLICATION_CONTEXT ( 'configuration controlled 3d designs of mechanical parts and assemblies' ) ;
#180 = DIRECTION ( 'NONE',  ( 0.0000000000000000000, 1.000000000000000000, 3.061515884555943146E-16 ) ) ;
#181 = CC_DESIGN_PERSON_AND_ORGANIZATION_ASSIGNMENT ( #146, #182, ( #78 ) ) ;
#182 = PERSON_AND_ORGANIZATION_ROLE ( 'creator' ) ;
#183 = DIRECTION ( 'NONE',  ( -0.0000000000000000000, 3.061515884555935257E-16, -1.000000000000000000 ) ) ;
#184 = DIRECTION ( 'NONE',  ( 0.0000000000000000000, -3.061515884555943146E-16, 1.000000000000000000 ) ) ;
#185 = COORDINATED_UNIVERSAL_TIME_OFFSET ( 5, 0, .BEHIND. ) ;
#186 = ORIENTED_EDGE ( 'NONE', *, *, #74, .T. ) ;
#187 = CARTESIAN_POINT ( 'NONE',  ( 0.0000000000000000000, -1.742198475328943389E-14, 141.2659999999999911 ) ) ;
#188 = DIRECTION ( 'NONE',  ( -0.0000000000000000000, 3.061515884555943146E-16, -1.000000000000000000 ) ) ;
#189 = DATE_AND_TIME ( #178, #250 ) ;
#190 = DESIGN_CONTEXT ( 'detailed design', #162, 'design' ) ;
#191 = CONICAL_SURFACE ( 'NONE', #90, 12.69999999999999929, 0.8307313751134488555 ) ;
#192 = FACE_OUTER_BOUND ( 'NONE', #76, .T. ) ;
#193 = ADVANCED_FACE ( 'NONE', ( #79 ), #208, .T. ) ;
#194 = CARTESIAN_POINT ( 'NONE',  ( 0.0000000000000000000, -5.437639519534711132E-16, 1.376126508755126654 ) ) ;
#195 = CALENDAR_DATE ( 2020, 18, 8 ) ;
#196 = DIRECTION ( 'NONE',  ( -0.0000000000000000000, 3.061515884555943146E-16, -1.000000000000000000 ) ) ;
#197 = ORIENTED_EDGE ( 'NONE', *, *, #121, .F. ) ;
#198 = VERTEX_POINT ( 'NONE', #57 ) ;
#199 = CARTESIAN_POINT ( 'NONE',  ( 0.0000000000000000000, -12.50000000000000355, -1.000000000000005773 ) ) ;
#200 = PERSON_AND_ORGANIZATION_ROLE ( 'classification_officer' ) ;
#201 = PERSON_AND_ORGANIZATION_ROLE ( 'design_owner' ) ;
#202 = EDGE_CURVE ( 'NONE', #8, #294, #137, .T. ) ;
#203 = DATE_AND_TIME ( #25, #219 ) ;
#204 = DATE_TIME_ROLE ( 'classification_date' ) ;
#205 = SPHERICAL_SURFACE ( 'NONE', #238, 140.2659999999999911 ) ;
#206 = CARTESIAN_POINT ( 'NONE',  ( 1.543054966925664878E-15, 12.50000000000000355, -0.9999999999999981126 ) ) ;
#207 = CARTESIAN_POINT ( 'NONE',  ( 0.0000000000000000000, 12.50067870479588272, 1.558148438538133673 ) ) ;
#208 = PLANE ( 'NONE',  #240 ) ;
#209 = EDGE_LOOP ( 'NONE', ( #274, #132, #167, #144 ) ) ;
#210 = ORIENTED_EDGE ( 'NONE', *, *, #24, .T. ) ;
#211 = LOCAL_TIME ( 11, 15, 20.00000000000000000, #150 ) ;
#212 = VERTEX_POINT ( 'NONE', #266 ) ;
#213 = PRODUCT_RELATED_PRODUCT_CATEGORY ( 'detail', '', ( #71 ) ) ;
#214 = ORIENTED_EDGE ( 'NONE', *, *, #1, .T. ) ;
#215 = DIRECTION ( 'NONE',  ( 0.0000000000000000000, 1.000000000000000000, 3.073328992872296367E-16 ) ) ;
#216 = CC_DESIGN_PERSON_AND_ORGANIZATION_ASSIGNMENT ( #241, #252, ( #259 ) ) ;
#217 = VECTOR ( 'NONE', #196, 1000.000000000000000 ) ;
#218 = AXIS2_PLACEMENT_3D ( 'NONE', #221, #104, #215 ) ;
#219 = LOCAL_TIME ( 11, 15, 20.00000000000000000, #185 ) ;
#220 = VECTOR ( 'NONE', #228, 999.9999999999998863 ) ;
#221 = CARTESIAN_POINT ( 'NONE',  ( 0.0000000000000000000, -5.437639519534689438E-16, 1.376126508755126654 ) ) ;
#222 = DIRECTION ( 'NONE',  ( -0.0000000000000000000, 3.061515884555935257E-16, -1.000000000000000000 ) ) ;
#223 = DIRECTION ( 'NONE',  ( 1.000000000000000000, 1.224646799147353207E-16, 3.749275628560213616E-32 ) ) ;
#224 = EDGE_LOOP ( 'NONE', ( #176, #227, #165, #197 ) ) ;
#225 = SECURITY_CLASSIFICATION ( '', '', #31 ) ;
#226 = EDGE_CURVE ( 'NONE', #4, #123, #69, .T. ) ;
#227 = ORIENTED_EDGE ( 'NONE', *, *, #103, .F. ) ;
#228 = DIRECTION ( 'NONE',  ( 0.0000000000000000000, 0.7384247610382823623, -0.6743358749803807228 ) ) ;
#229 = DIRECTION ( 'NONE',  ( 0.0000000000000000000, -0.7071067811865598962, 0.7071067811865351382 ) ) ;
#230 = DIRECTION ( 'NONE',  ( 9.043095200166814584E-17, -0.7384247610382819182, -0.6743358749803810559 ) ) ;
#231 = DIRECTION ( 'NONE',  ( 0.0000000000000000000, 0.0000000000000000000, 1.000000000000000000 ) ) ;
#232 = VECTOR ( 'NONE', #229, 1000.000000000000114 ) ;
#233 = PERSON_AND_ORGANIZATION ( #119, #5 ) ;
#234 = CIRCLE ( 'NONE', #20, 12.50067870479579923 ) ;
#235 = ADVANCED_FACE ( 'NONE', ( #46 ), #52, .T. ) ;
#236 = EDGE_LOOP ( 'NONE', ( #288, #96, #171, #243 ) ) ;
#237 = ORIENTED_EDGE ( 'NONE', *, *, #56, .T. ) ;
#238 = AXIS2_PLACEMENT_3D ( 'NONE', #275, #38, #41 ) ;
#239 = ADVANCED_FACE ( 'NONE', ( #101 ), #191, .T. ) ;
#240 = AXIS2_PLACEMENT_3D ( 'NONE', #290, #173, #180 ) ;
#241 = PERSON_AND_ORGANIZATION ( #119, #5 ) ;
#242 = CARTESIAN_POINT ( 'NONE',  ( 0.0000000000000000000, -5.437639519534711132E-16, 1.376126508755126654 ) ) ;
#243 = ORIENTED_EDGE ( 'NONE', *, *, #56, .F. ) ;
#244 = CC_DESIGN_PERSON_AND_ORGANIZATION_ASSIGNMENT ( #116, #201, ( #71 ) ) ;
#245 = CC_DESIGN_DATE_AND_TIME_ASSIGNMENT ( #203, #268, ( #259 ) ) ;
#246 = APPROVAL_DATE_TIME ( #99, #70 ) ;
#247 = VERTEX_POINT ( 'NONE', #84 ) ;
#248 = DIRECTION ( 'NONE',  ( 0.0000000000000000000, 1.000000000000000000, 3.073328992872296367E-16 ) ) ;
#249 = CARTESIAN_POINT ( 'NONE',  ( 1.555301434917138433E-15, -12.69999999999999929, -0.8000000000000173639 ) ) ;
#250 = LOCAL_TIME ( 11, 15, 20.00000000000000000, #143 ) ;
#251 = LINE ( 'NONE', #27, #217 ) ;
#252 = PERSON_AND_ORGANIZATION_ROLE ( 'creator' ) ;
#253 = AXIS2_PLACEMENT_3D ( 'NONE', #152, #188, #135 ) ;
#254 = APPROVAL_PERSON_ORGANIZATION ( #257, #174, #161 ) ;
#255 = AXIS2_PLACEMENT_3D ( 'NONE', #77, #114, #105 ) ;
#256 = EDGE_CURVE ( 'NONE', #291, #8, #26, .T. ) ;
#257 = PERSON_AND_ORGANIZATION ( #119, #5 ) ;
#258 = CIRCLE ( 'NONE', #43, 140.2659999999999911 ) ;
#259 = PRODUCT_DEFINITION ( 'UNKNOWN', '', #78, #190 ) ;
#260 = CIRCLE ( 'NONE', #66, 12.50067870479579923 ) ;
#261 = DIRECTION ( 'NONE',  ( 0.0000000000000000000, 1.000000000000000000, 3.073328992872296367E-16 ) ) ;
#262 = FACE_OUTER_BOUND ( 'NONE', #224, .T. ) ;
#263 = CC_DESIGN_PERSON_AND_ORGANIZATION_ASSIGNMENT ( #75, #279, ( #78 ) ) ;
#264 = AXIS2_PLACEMENT_3D ( 'NONE', #242, #183, #6 ) ;
#265 = VECTOR ( 'NONE', #230, 1000.000000000000114 ) ;
#266 = CARTESIAN_POINT ( 'NONE',  ( 0.0000000000000000000, 3.410948934948309231E-14, 1.000000000000000888 ) ) ;
#267 = ORIENTED_EDGE ( 'NONE', *, *, #24, .F. ) ;
#268 = DATE_TIME_ROLE ( 'creation_date' ) ;
#269 = DIRECTION ( 'NONE',  ( 0.0000000000000000000, -3.061515884555943146E-16, 1.000000000000000000 ) ) ;
#270 = EDGE_LOOP ( 'NONE', ( #267, #186, #107 ) ) ;
#271 = ORIENTED_EDGE ( 'NONE', *, *, #7, .T. ) ;
#272 = CONICAL_SURFACE ( 'NONE', #12, 12.50000000000000355, 0.7853981633974653764 ) ;
#273 = CYLINDRICAL_SURFACE ( 'NONE', #108, 12.69999999999999929 ) ;
#274 = ORIENTED_EDGE ( 'NONE', *, *, #74, .F. ) ;
#275 = CARTESIAN_POINT ( 'NONE',  ( 0.0000000000000000000, -1.742198475328943389E-14, 141.2659999999999911 ) ) ;
#276 = CONICAL_SURFACE ( 'NONE', #218, 12.69999999999999929, 0.8307313751134488555 ) ;
#277 = EDGE_CURVE ( 'NONE', #198, #151, #91, .T. ) ;
#278 = CC_DESIGN_SECURITY_CLASSIFICATION ( #225, ( #78 ) ) ;
#279 = PERSON_AND_ORGANIZATION_ROLE ( 'design_supplier' ) ;
#280 = EDGE_CURVE ( 'NONE', #294, #247, #73, .T. ) ;
#281 = CIRCLE ( 'NONE', #264, 12.69999999999999929 ) ;
#282 = EDGE_LOOP ( 'NONE', ( #13, #28, #301, #296 ) ) ;
#283 = DIRECTION ( 'NONE',  ( 8.659560562355078304E-17, 0.7071067811865594521, 0.7071067811865356934 ) ) ;
#284 = CIRCLE ( 'NONE', #300, 12.69999999999999929 ) ;
#285 = ADVANCED_BREP_SHAPE_REPRESENTATION ( 'TTN206861-E0W', ( #44, #118 ), #100 ) ;
#286 = DIRECTION ( 'NONE',  ( -0.0000000000000000000, 3.061515884555943146E-16, -1.000000000000000000 ) ) ;
#287 = CALENDAR_DATE ( 2020, 18, 8 ) ;
#288 = ORIENTED_EDGE ( 'NONE', *, *, #277, .F. ) ;
#289 =( LENGTH_UNIT ( ) NAMED_UNIT ( * ) SI_UNIT ( .MILLI., .METRE. ) );
#290 = CARTESIAN_POINT ( 'NONE',  ( 0.0000000000000000000, 1.836909530733571311E-16, -1.000000000000001998 ) ) ;
#291 = VERTEX_POINT ( 'NONE', #206 ) ;
#292 = DIRECTION ( 'NONE',  ( 0.0000000000000000000, -3.061515884555943146E-16, 1.000000000000000000 ) ) ;
#293 = EDGE_CURVE ( 'NONE', #123, #151, #281, .T. ) ;
#294 = VERTEX_POINT ( 'NONE', #249 ) ;
#295 = APPROVAL_DATE_TIME ( #130, #174 ) ;
#296 = ORIENTED_EDGE ( 'NONE', *, *, #202, .F. ) ;
#297 = ADVANCED_FACE ( 'NONE', ( #120 ), #272, .T. ) ;
#298 = CARTESIAN_POINT ( 'NONE',  ( 0.0000000000000000000, -1.742198475328943389E-14, 141.2659999999999911 ) ) ;
#299 = LOCAL_TIME ( 11, 15, 20.00000000000000000, #11 ) ;
#300 = AXIS2_PLACEMENT_3D ( 'NONE', #140, #269, #163 ) ;
#301 = ORIENTED_EDGE ( 'NONE', *, *, #280, .F. ) ;
ENDSEC;
END-ISO-10303-21;
