ISO-10303-21;
HEADER;
FILE_DESCRIPTION (( 'STEP AP203' ),
    '1' );
FILE_NAME ('Web Model 45310_45810.step',
    '2019-01-07T15:43:24',
    ( '' ),
    ( '' ),
    'SwSTEP 2.0',
    'SolidWorks 2016',
    '' );
FILE_SCHEMA (( 'CONFIG_CONTROL_DESIGN' ));
ENDSEC;

DATA;
#1 = DATE_AND_TIME ( #116, #67 ) ;
#2 = APPROVAL_STATUS ( 'not_yet_approved' ) ;
#3 = DIRECTION ( 'NONE',  ( 1.000000000000000000, 0.0000000000000000000, 0.0000000000000000000 ) ) ;
#4 = FACE_OUTER_BOUND ( 'NONE', #100, .T. ) ;
#5 = PERSON_AND_ORGANIZATION ( #167, #55 ) ;
#6 = FACE_OUTER_BOUND ( 'NONE', #143, .T. ) ;
#7 = APPROVAL_PERSON_ORGANIZATION ( #5, #87, #73 ) ;
#8 = ADVANCED_BREP_SHAPE_REPRESENTATION ( 'Web Model 45310_45810', ( #111, #35 ), #46 ) ;
#9 = PERSON_AND_ORGANIZATION ( #167, #55 ) ;
#10 = ADVANCED_FACE ( 'NONE', ( #6 ), #119, .T. ) ;
#11 = PRODUCT_DEFINITION_SHAPE ( 'NONE', 'NONE',  #157 ) ;
#12 = CARTESIAN_POINT ( 'NONE',  ( 0.0000000000000000000, 0.0000000000000000000, 1.000000000000000000 ) ) ;
#13 = PERSON_AND_ORGANIZATION ( #167, #55 ) ;
#14 = EDGE_CURVE ( 'NONE', #162, #49, #32, .T. ) ;
#15 = CARTESIAN_POINT ( 'NONE',  ( 0.0000000000000000000, 0.0000000000000000000, 1.000000000000000000 ) ) ;
#16 = DIRECTION ( 'NONE',  ( 0.0000000000000000000, 0.0000000000000000000, 1.000000000000000000 ) ) ;
#17 = APPROVAL_ROLE ( '' ) ;
#18 = PERSON_AND_ORGANIZATION_ROLE ( 'creator' ) ;
#19 = CIRCLE ( 'NONE', #168, 7.500000000000000000 ) ;
#20 = DATE_AND_TIME ( #36, #109 ) ;
#21 = PRODUCT_RELATED_PRODUCT_CATEGORY ( 'detail', '', ( #129 ) ) ;
#22 = AXIS2_PLACEMENT_3D ( 'NONE', #174, #62, #94 ) ;
#23 = LINE ( 'NONE', #124, #47 ) ;
#24 = PERSON_AND_ORGANIZATION ( #167, #55 ) ;
#25 = CYLINDRICAL_SURFACE ( 'NONE', #72, 7.500000000000000000 ) ;
#26 = UNCERTAINTY_MEASURE_WITH_UNIT (LENGTH_MEASURE( 1.000000000000000100E-005 ), #126, 'distance_accuracy_value', 'NONE');
#27 = CARTESIAN_POINT ( 'NONE',  ( -7.500000000000000000, 0.0000000000000000000, -1.000000000000000000 ) ) ;
#28 = CARTESIAN_POINT ( 'NONE',  ( 0.0000000000000000000, 0.0000000000000000000, 1.000000000000000000 ) ) ;
#29 = DIRECTION ( 'NONE',  ( 1.000000000000000000, 0.0000000000000000000, 0.0000000000000000000 ) ) ;
#30 = APPROVAL_ROLE ( '' ) ;
#31 =( NAMED_UNIT ( * ) SI_UNIT ( $, .STERADIAN. ) SOLID_ANGLE_UNIT ( ) );
#32 = CIRCLE ( 'NONE', #22, 7.500000000000000000 ) ;
#33 = SECURITY_CLASSIFICATION ( '', '', #85 ) ;
#34 = CLOSED_SHELL ( 'NONE', ( #173, #10, #103, #121 ) ) ;
#35 = AXIS2_PLACEMENT_3D ( 'NONE', #128, #155, #51 ) ;
#36 = CALENDAR_DATE ( 2019, 7, 1 ) ;
#37 = SHAPE_DEFINITION_REPRESENTATION ( #11, #8 ) ;
#38 = VERTEX_POINT ( 'NONE', #175 ) ;
#39 = PERSON_AND_ORGANIZATION ( #167, #55 ) ;
#40 = CIRCLE ( 'NONE', #164, 7.500000000000000000 ) ;
#41 = CC_DESIGN_APPROVAL ( #130, ( #33 ) ) ;
#42 = PERSON_AND_ORGANIZATION ( #167, #55 ) ;
#43 = CARTESIAN_POINT ( 'NONE',  ( 0.0000000000000000000, 0.0000000000000000000, -1.000000000000000000 ) ) ;
#44 = CC_DESIGN_PERSON_AND_ORGANIZATION_ASSIGNMENT ( #39, #48, ( #127 ) ) ;
#45 = DIRECTION ( 'NONE',  ( 0.0000000000000000000, 0.0000000000000000000, 1.000000000000000000 ) ) ;
#46 =( GEOMETRIC_REPRESENTATION_CONTEXT ( 3 ) GLOBAL_UNCERTAINTY_ASSIGNED_CONTEXT ( ( #26 ) ) GLOBAL_UNIT_ASSIGNED_CONTEXT ( ( #126, #166, #31 ) ) REPRESENTATION_CONTEXT ( 'NONE', 'WORKASPACE' ) );
#47 = VECTOR ( 'NONE', #70, 1000.000000000000000 ) ;
#48 = PERSON_AND_ORGANIZATION_ROLE ( 'design_supplier' ) ;
#49 = VERTEX_POINT ( 'NONE', #163 ) ;
#50 = APPLICATION_PROTOCOL_DEFINITION ( 'international standard', 'config_control_design', 1994, #97 ) ;
#51 = DIRECTION ( 'NONE',  ( 1.000000000000000000, 0.0000000000000000000, 0.0000000000000000000 ) ) ;
#52 = CC_DESIGN_PERSON_AND_ORGANIZATION_ASSIGNMENT ( #13, #74, ( #129 ) ) ;
#53 = ORIENTED_EDGE ( 'NONE', *, *, #90, .T. ) ;
#54 = CALENDAR_DATE ( 2019, 7, 1 ) ;
#55 = ORGANIZATION ( 'UNSPECIFIED', 'UNSPECIFIED', '' ) ;
#56 = CC_DESIGN_PERSON_AND_ORGANIZATION_ASSIGNMENT ( #42, #96, ( #33 ) ) ;
#57 = COORDINATED_UNIVERSAL_TIME_OFFSET ( 5, 0, .BEHIND. ) ;
#58 = CC_DESIGN_DATE_AND_TIME_ASSIGNMENT ( #79, #63, ( #33 ) ) ;
#59 = COORDINATED_UNIVERSAL_TIME_OFFSET ( 5, 0, .BEHIND. ) ;
#60 = DESIGN_CONTEXT ( 'detailed design', #158, 'design' ) ;
#61 = CARTESIAN_POINT ( 'NONE',  ( -7.500000000000000000, 0.0000000000000000000, 1.000000000000000000 ) ) ;
#62 = DIRECTION ( 'NONE',  ( 0.0000000000000000000, 0.0000000000000000000, 1.000000000000000000 ) ) ;
#63 = DATE_TIME_ROLE ( 'classification_date' ) ;
#64 = CC_DESIGN_SECURITY_CLASSIFICATION ( #33, ( #127 ) ) ;
#65 = ORIENTED_EDGE ( 'NONE', *, *, #136, .F. ) ;
#66 = AXIS2_PLACEMENT_3D ( 'NONE', #133, #91, #71 ) ;
#67 = LOCAL_TIME ( 10, 43, 24.00000000000000000, #132 ) ;
#68 = LOCAL_TIME ( 10, 43, 24.00000000000000000, #69 ) ;
#69 = COORDINATED_UNIVERSAL_TIME_OFFSET ( 5, 0, .BEHIND. ) ;
#70 = DIRECTION ( 'NONE',  ( -0.0000000000000000000, -0.0000000000000000000, -1.000000000000000000 ) ) ;
#71 = DIRECTION ( 'NONE',  ( 1.000000000000000000, 0.0000000000000000000, -0.0000000000000000000 ) ) ;
#72 = AXIS2_PLACEMENT_3D ( 'NONE', #15, #110, #152 ) ;
#73 = APPROVAL_ROLE ( '' ) ;
#74 = PERSON_AND_ORGANIZATION_ROLE ( 'design_owner' ) ;
#75 = DATE_TIME_ROLE ( 'creation_date' ) ;
#76 = VERTEX_POINT ( 'NONE', #61 ) ;
#77 = APPROVAL_DATE_TIME ( #1, #125 ) ;
#78 = FACE_OUTER_BOUND ( 'NONE', #137, .T. ) ;
#79 = DATE_AND_TIME ( #144, #88 ) ;
#80 = ORIENTED_EDGE ( 'NONE', *, *, #14, .F. ) ;
#81 = APPROVAL_PERSON_ORGANIZATION ( #153, #125, #30 ) ;
#82 = CARTESIAN_POINT ( 'NONE',  ( 0.0000000000000000000, 0.0000000000000000000, 1.000000000000000000 ) ) ;
#83 = APPLICATION_PROTOCOL_DEFINITION ( 'international standard', 'config_control_design', 1994, #158 ) ;
#84 = APPROVAL_DATE_TIME ( #20, #87 ) ;
#85 = SECURITY_CLASSIFICATION_LEVEL ( 'unclassified' ) ;
#86 = APPROVAL_STATUS ( 'not_yet_approved' ) ;
#87 = APPROVAL ( #86, 'UNSPECIFIED' ) ;
#88 = LOCAL_TIME ( 10, 43, 24.00000000000000000, #59 ) ;
#89 = CC_DESIGN_APPROVAL ( #125, ( #127 ) ) ;
#90 = EDGE_CURVE ( 'NONE', #38, #49, #23, .T. ) ;
#91 = DIRECTION ( 'NONE',  ( 0.0000000000000000000, 0.0000000000000000000, 1.000000000000000000 ) ) ;
#92 = DIRECTION ( 'NONE',  ( -1.000000000000000000, 0.0000000000000000000, 0.0000000000000000000 ) ) ;
#93 = CARTESIAN_POINT ( 'NONE',  ( -7.500000000000000000, 0.0000000000000000000, 1.000000000000000000 ) ) ;
#94 = DIRECTION ( 'NONE',  ( 1.000000000000000000, 0.0000000000000000000, 0.0000000000000000000 ) ) ;
#95 = CC_DESIGN_PERSON_AND_ORGANIZATION_ASSIGNMENT ( #99, #140, ( #127 ) ) ;
#96 = PERSON_AND_ORGANIZATION_ROLE ( 'classification_officer' ) ;
#97 = APPLICATION_CONTEXT ( 'configuration controlled 3d designs of mechanical parts and assemblies' ) ;
#98 = AXIS2_PLACEMENT_3D ( 'NONE', #82, #112, #29 ) ;
#99 = PERSON_AND_ORGANIZATION ( #167, #55 ) ;
#100 = EDGE_LOOP ( 'NONE', ( #146, #171 ) ) ;
#101 = EDGE_CURVE ( 'NONE', #38, #76, #134, .T. ) ;
#102 = ORIENTED_EDGE ( 'NONE', *, *, #90, .F. ) ;
#103 = ADVANCED_FACE ( 'NONE', ( #4 ), #105, .T. ) ;
#104 = PLANE ( 'NONE',  #66 ) ;
#105 = PLANE ( 'NONE',  #151 ) ;
#106 = CC_DESIGN_APPROVAL ( #87, ( #157 ) ) ;
#107 = CARTESIAN_POINT ( 'NONE',  ( 0.0000000000000000000, 0.0000000000000000000, 1.000000000000000000 ) ) ;
#108 = EDGE_LOOP ( 'NONE', ( #149, #53, #115, #141 ) ) ;
#109 = LOCAL_TIME ( 10, 43, 24.00000000000000000, #122 ) ;
#110 = DIRECTION ( 'NONE',  ( -0.0000000000000000000, -0.0000000000000000000, -1.000000000000000000 ) ) ;
#111 = MANIFOLD_SOLID_BREP ( 'Boss-Extrude1', #34 ) ;
#112 = DIRECTION ( 'NONE',  ( 0.0000000000000000000, 0.0000000000000000000, 1.000000000000000000 ) ) ;
#113 = MECHANICAL_CONTEXT ( 'NONE', #97, 'mechanical' ) ;
#114 = ORIENTED_EDGE ( 'NONE', *, *, #14, .T. ) ;
#115 = ORIENTED_EDGE ( 'NONE', *, *, #161, .T. ) ;
#116 = CALENDAR_DATE ( 2019, 7, 1 ) ;
#117 = LINE ( 'NONE', #93, #139 ) ;
#118 = CC_DESIGN_DATE_AND_TIME_ASSIGNMENT ( #148, #75, ( #157 ) ) ;
#119 = CYLINDRICAL_SURFACE ( 'NONE', #131, 7.500000000000000000 ) ;
#120 = CC_DESIGN_PERSON_AND_ORGANIZATION_ASSIGNMENT ( #24, #18, ( #157 ) ) ;
#121 = ADVANCED_FACE ( 'NONE', ( #78 ), #104, .F. ) ;
#122 = COORDINATED_UNIVERSAL_TIME_OFFSET ( 5, 0, .BEHIND. ) ;
#123 = DIRECTION ( 'NONE',  ( -0.0000000000000000000, -0.0000000000000000000, -1.000000000000000000 ) ) ;
#124 = CARTESIAN_POINT ( 'NONE',  ( 7.500000000000000000, 9.184850993605147900E-016, 1.000000000000000000 ) ) ;
#125 = APPROVAL ( #165, 'UNSPECIFIED' ) ;
#126 =( LENGTH_UNIT ( ) NAMED_UNIT ( * ) SI_UNIT ( .MILLI., .METRE. ) );
#127 = PRODUCT_DEFINITION_FORMATION_WITH_SPECIFIED_SOURCE ( 'ANY', '', #129, .NOT_KNOWN. ) ;
#128 = CARTESIAN_POINT ( 'NONE',  ( 0.0000000000000000000, 0.0000000000000000000, 0.0000000000000000000 ) ) ;
#129 = PRODUCT ( 'Web Model 45310_45810', 'Web Model 45310_45810', '', ( #113 ) ) ;
#130 = APPROVAL ( #2, 'UNSPECIFIED' ) ;
#131 = AXIS2_PLACEMENT_3D ( 'NONE', #107, #135, #92 ) ;
#132 = COORDINATED_UNIVERSAL_TIME_OFFSET ( 5, 0, .BEHIND. ) ;
#133 = CARTESIAN_POINT ( 'NONE',  ( 0.0000000000000000000, 0.0000000000000000000, -1.000000000000000000 ) ) ;
#134 = CIRCLE ( 'NONE', #98, 7.500000000000000000 ) ;
#135 = DIRECTION ( 'NONE',  ( -0.0000000000000000000, -0.0000000000000000000, -1.000000000000000000 ) ) ;
#136 = EDGE_CURVE ( 'NONE', #76, #38, #40, .T. ) ;
#137 = EDGE_LOOP ( 'NONE', ( #80, #147 ) ) ;
#138 = APPROVAL_PERSON_ORGANIZATION ( #9, #130, #17 ) ;
#139 = VECTOR ( 'NONE', #123, 1000.000000000000000 ) ;
#140 = PERSON_AND_ORGANIZATION_ROLE ( 'creator' ) ;
#141 = ORIENTED_EDGE ( 'NONE', *, *, #145, .F. ) ;
#142 = CALENDAR_DATE ( 2019, 7, 1 ) ;
#143 = EDGE_LOOP ( 'NONE', ( #102, #65, #169, #114 ) ) ;
#144 = CALENDAR_DATE ( 2019, 7, 1 ) ;
#145 = EDGE_CURVE ( 'NONE', #76, #162, #117, .T. ) ;
#146 = ORIENTED_EDGE ( 'NONE', *, *, #136, .T. ) ;
#147 = ORIENTED_EDGE ( 'NONE', *, *, #161, .F. ) ;
#148 = DATE_AND_TIME ( #142, #170 ) ;
#149 = ORIENTED_EDGE ( 'NONE', *, *, #101, .F. ) ;
#150 = DIRECTION ( 'NONE',  ( 0.0000000000000000000, 0.0000000000000000000, 1.000000000000000000 ) ) ;
#151 = AXIS2_PLACEMENT_3D ( 'NONE', #28, #45, #154 ) ;
#152 = DIRECTION ( 'NONE',  ( -1.000000000000000000, 0.0000000000000000000, 0.0000000000000000000 ) ) ;
#153 = PERSON_AND_ORGANIZATION ( #167, #55 ) ;
#154 = DIRECTION ( 'NONE',  ( 1.000000000000000000, 0.0000000000000000000, -0.0000000000000000000 ) ) ;
#155 = DIRECTION ( 'NONE',  ( 0.0000000000000000000, 0.0000000000000000000, 1.000000000000000000 ) ) ;
#156 = DATE_AND_TIME ( #54, #68 ) ;
#157 = PRODUCT_DEFINITION ( 'UNKNOWN', '', #127, #60 ) ;
#158 = APPLICATION_CONTEXT ( 'configuration controlled 3d designs of mechanical parts and assemblies' ) ;
#159 = APPROVAL_DATE_TIME ( #156, #130 ) ;
#160 = FACE_OUTER_BOUND ( 'NONE', #108, .T. ) ;
#161 = EDGE_CURVE ( 'NONE', #49, #162, #19, .T. ) ;
#162 = VERTEX_POINT ( 'NONE', #27 ) ;
#163 = CARTESIAN_POINT ( 'NONE',  ( 7.500000000000000000, 9.184850993605147900E-016, -1.000000000000000000 ) ) ;
#164 = AXIS2_PLACEMENT_3D ( 'NONE', #12, #150, #172 ) ;
#165 = APPROVAL_STATUS ( 'not_yet_approved' ) ;
#166 =( NAMED_UNIT ( * ) PLANE_ANGLE_UNIT ( ) SI_UNIT ( $, .RADIAN. ) );
#167 = PERSON ( 'UNSPECIFIED', 'UNSPECIFIED', 'UNSPECIFIED', ('UNSPECIFIED'), ('UNSPECIFIED'), ('UNSPECIFIED') ) ;
#168 = AXIS2_PLACEMENT_3D ( 'NONE', #43, #16, #3 ) ;
#169 = ORIENTED_EDGE ( 'NONE', *, *, #145, .T. ) ;
#170 = LOCAL_TIME ( 10, 43, 24.00000000000000000, #57 ) ;
#171 = ORIENTED_EDGE ( 'NONE', *, *, #101, .T. ) ;
#172 = DIRECTION ( 'NONE',  ( 1.000000000000000000, 0.0000000000000000000, 0.0000000000000000000 ) ) ;
#173 = ADVANCED_FACE ( 'NONE', ( #160 ), #25, .T. ) ;
#174 = CARTESIAN_POINT ( 'NONE',  ( 0.0000000000000000000, 0.0000000000000000000, -1.000000000000000000 ) ) ;
#175 = CARTESIAN_POINT ( 'NONE',  ( 7.500000000000000000, 9.184850993605147900E-016, 1.000000000000000000 ) ) ;
ENDSEC;
END-ISO-10303-21;
