ISO-10303-21;
HEADER;
FILE_DESCRIPTION (( 'STEP AP203' ),
    '1' );
FILE_NAME ('Web Model 83475.STEP',
    '2017-02-01T15:23:43',
    ( '' ),
    ( '' ),
    'SwSTEP 2.0',
    'SolidWorks 2016',
    '' );
FILE_SCHEMA (( 'CONFIG_CONTROL_DESIGN' ));
ENDSEC;

DATA;
#1 = ORIENTED_EDGE ( 'NONE', *, *, #18, .T. ) ;
#2 = EDGE_CURVE ( 'NONE', #57, #36, #21, .T. ) ;
#3 = AXIS2_PLACEMENT_3D ( 'NONE', #86, #209, #19 ) ;
#4 = APPROVAL ( #95, 'UNSPECIFIED' ) ;
#5 = APPROVAL_ROLE ( '' ) ;
#6 = APPLICATION_PROTOCOL_DEFINITION ( 'international standard', 'config_control_design', 1994, #181 ) ;
#7 = APPROVAL_ROLE ( '' ) ;
#8 = LOCAL_TIME ( 10, 23, 43.00000000000000000, #232 ) ;
#9 = DATE_AND_TIME ( #167, #8 ) ;
#10 =( NAMED_UNIT ( * ) PLANE_ANGLE_UNIT ( ) SI_UNIT ( $, .RADIAN. ) );
#11 = ORIENTED_EDGE ( 'NONE', *, *, #2, .T. ) ;
#12 = VECTOR ( 'NONE', #194, 1000.000000000000000 ) ;
#13 = DIRECTION ( 'NONE',  ( 0.0000000000000000000, -1.000000000000000000, 0.0000000000000000000 ) ) ;
#14 = PLANE ( 'NONE',  #27 ) ;
#15 = CLOSED_SHELL ( 'NONE', ( #229, #149, #69, #227, #67, #235 ) ) ;
#16 = LINE ( 'NONE', #237, #199 ) ;
#17 = DIRECTION ( 'NONE',  ( 1.000000000000000000, 0.0000000000000000000, 0.0000000000000000000 ) ) ;
#18 = EDGE_CURVE ( 'NONE', #81, #64, #193, .T. ) ;
#19 = DIRECTION ( 'NONE',  ( 0.0000000000000000000, -0.0000000000000000000, -1.000000000000000000 ) ) ;
#20 = LINE ( 'NONE', #37, #201 ) ;
#21 = LINE ( 'NONE', #118, #202 ) ;
#22 = ORIENTED_EDGE ( 'NONE', *, *, #218, .F. ) ;
#23 = DIRECTION ( 'NONE',  ( -0.0000000000000000000, -0.0000000000000000000, -1.000000000000000000 ) ) ;
#24 = APPROVAL_PERSON_ORGANIZATION ( #219, #225, #61 ) ;
#25 =( GEOMETRIC_REPRESENTATION_CONTEXT ( 3 ) GLOBAL_UNCERTAINTY_ASSIGNED_CONTEXT ( ( #196 ) ) GLOBAL_UNIT_ASSIGNED_CONTEXT ( ( #145, #10, #147 ) ) REPRESENTATION_CONTEXT ( 'NONE', 'WORKASPACE' ) );
#26 = DIRECTION ( 'NONE',  ( -0.0000000000000000000, 0.0000000000000000000, 1.000000000000000000 ) ) ;
#27 = AXIS2_PLACEMENT_3D ( 'NONE', #98, #136, #33 ) ;
#28 = MANIFOLD_SOLID_BREP ( 'Extrude1', #15 ) ;
#29 = ORIENTED_EDGE ( 'NONE', *, *, #187, .T. ) ;
#30 = LOCAL_TIME ( 10, 23, 43.00000000000000000, #224 ) ;
#31 = LINE ( 'NONE', #213, #92 ) ;
#32 = DIRECTION ( 'NONE',  ( 1.000000000000000000, 0.0000000000000000000, 0.0000000000000000000 ) ) ;
#33 = DIRECTION ( 'NONE',  ( -0.0000000000000000000, 0.0000000000000000000, -1.000000000000000000 ) ) ;
#34 = PERSON_AND_ORGANIZATION ( #157, #231 ) ;
#35 = CC_DESIGN_DATE_AND_TIME_ASSIGNMENT ( #135, #60, ( #172 ) ) ;
#36 = VERTEX_POINT ( 'NONE', #230 ) ;
#37 = CARTESIAN_POINT ( 'NONE',  ( 17.49999999999999600, -17.50000000000000000, 3.000000000000000000 ) ) ;
#38 = CARTESIAN_POINT ( 'NONE',  ( 17.49999999999999600, 17.50000000000000000, 3.000000000000000000 ) ) ;
#39 = VECTOR ( 'NONE', #50, 1000.000000000000000 ) ;
#40 = VERTEX_POINT ( 'NONE', #100 ) ;
#41 = LOCAL_TIME ( 10, 23, 43.00000000000000000, #165 ) ;
#42 = VECTOR ( 'NONE', #154, 1000.000000000000000 ) ;
#43 = PERSON_AND_ORGANIZATION_ROLE ( 'creator' ) ;
#44 = CC_DESIGN_APPROVAL ( #225, ( #200 ) ) ;
#45 = VECTOR ( 'NONE', #106, 1000.000000000000000 ) ;
#46 = MECHANICAL_CONTEXT ( 'NONE', #181, 'mechanical' ) ;
#47 = APPLICATION_CONTEXT ( 'configuration controlled 3d designs of mechanical parts and assemblies' ) ;
#48 = ORIENTED_EDGE ( 'NONE', *, *, #180, .T. ) ;
#49 = CARTESIAN_POINT ( 'NONE',  ( -17.50000000000000400, 17.50000000000000000, 3.000000000000000000 ) ) ;
#50 = DIRECTION ( 'NONE',  ( 1.000000000000000000, 0.0000000000000000000, 0.0000000000000000000 ) ) ;
#51 = AXIS2_PLACEMENT_3D ( 'NONE', #84, #113, #162 ) ;
#52 = CARTESIAN_POINT ( 'NONE',  ( 17.49999999999999600, 17.50000000000000000, 3.000000000000000000 ) ) ;
#53 = PLANE ( 'NONE',  #83 ) ;
#54 = ORIENTED_EDGE ( 'NONE', *, *, #177, .F. ) ;
#55 = FACE_OUTER_BOUND ( 'NONE', #143, .T. ) ;
#56 = LINE ( 'NONE', #188, #183 ) ;
#57 = VERTEX_POINT ( 'NONE', #120 ) ;
#58 = APPLICATION_PROTOCOL_DEFINITION ( 'international standard', 'config_control_design', 1994, #47 ) ;
#59 = LOCAL_TIME ( 10, 23, 43.00000000000000000, #76 ) ;
#60 = DATE_TIME_ROLE ( 'creation_date' ) ;
#61 = APPROVAL_ROLE ( '' ) ;
#62 = APPROVAL_PERSON_ORGANIZATION ( #166, #4, #5 ) ;
#63 = EDGE_LOOP ( 'NONE', ( #79, #54, #198, #96 ) ) ;
#64 = VERTEX_POINT ( 'NONE', #88 ) ;
#65 = APPROVAL_STATUS ( 'not_yet_approved' ) ;
#66 = CARTESIAN_POINT ( 'NONE',  ( -17.50000000000000400, -17.50000000000000000, 3.000000000000000000 ) ) ;
#67 = ADVANCED_FACE ( 'NONE', ( #124 ), #169, .T. ) ;
#68 = PERSON_AND_ORGANIZATION_ROLE ( 'creator' ) ;
#69 = ADVANCED_FACE ( 'NONE', ( #116 ), #14, .F. ) ;
#70 = ORIENTED_EDGE ( 'NONE', *, *, #187, .F. ) ;
#71 = AXIS2_PLACEMENT_3D ( 'NONE', #104, #122, #174 ) ;
#72 = EDGE_LOOP ( 'NONE', ( #119, #164, #117, #155 ) ) ;
#73 = DIRECTION ( 'NONE',  ( 0.0000000000000000000, -1.000000000000000000, 0.0000000000000000000 ) ) ;
#74 = EDGE_CURVE ( 'NONE', #163, #36, #56, .T. ) ;
#75 = DESIGN_CONTEXT ( 'detailed design', #47, 'design' ) ;
#76 = COORDINATED_UNIVERSAL_TIME_OFFSET ( 5, 0, .BEHIND. ) ;
#77 = EDGE_CURVE ( 'NONE', #36, #81, #206, .T. ) ;
#78 = ORIENTED_EDGE ( 'NONE', *, *, #101, .F. ) ;
#79 = ORIENTED_EDGE ( 'NONE', *, *, #77, .T. ) ;
#80 = PRODUCT ( 'Web Model 83475', 'Web Model 83475', '', ( #46 ) ) ;
#81 = VERTEX_POINT ( 'NONE', #89 ) ;
#82 = APPROVAL_STATUS ( 'not_yet_approved' ) ;
#83 = AXIS2_PLACEMENT_3D ( 'NONE', #38, #140, #173 ) ;
#84 = CARTESIAN_POINT ( 'NONE',  ( 0.0000000000000000000, 0.0000000000000000000, 0.0000000000000000000 ) ) ;
#85 = VECTOR ( 'NONE', #32, 1000.000000000000000 ) ;
#86 = CARTESIAN_POINT ( 'NONE',  ( -17.50000000000000400, 17.50000000000000000, 3.000000000000000000 ) ) ;
#87 = CC_DESIGN_PERSON_AND_ORGANIZATION_ASSIGNMENT ( #176, #159, ( #80 ) ) ;
#88 = CARTESIAN_POINT ( 'NONE',  ( 17.49999999999999600, 17.50000000000000000, 0.0000000000000000000 ) ) ;
#89 = CARTESIAN_POINT ( 'NONE',  ( 17.49999999999999600, -17.50000000000000000, 0.0000000000000000000 ) ) ;
#90 = EDGE_LOOP ( 'NONE', ( #112, #220, #29, #207 ) ) ;
#91 = CARTESIAN_POINT ( 'NONE',  ( -17.50000000000000400, 17.50000000000000000, 3.000000000000000000 ) ) ;
#92 = VECTOR ( 'NONE', #73, 1000.000000000000000 ) ;
#93 = VERTEX_POINT ( 'NONE', #49 ) ;
#94 = CC_DESIGN_APPROVAL ( #233, ( #172 ) ) ;
#95 = APPROVAL_STATUS ( 'not_yet_approved' ) ;
#96 = ORIENTED_EDGE ( 'NONE', *, *, #74, .T. ) ;
#97 = EDGE_LOOP ( 'NONE', ( #1, #110, #78, #127 ) ) ;
#98 = CARTESIAN_POINT ( 'NONE',  ( -17.50000000000000400, 17.50000000000000000, 3.000000000000000000 ) ) ;
#99 = DATE_AND_TIME ( #195, #185 ) ;
#100 = CARTESIAN_POINT ( 'NONE',  ( 17.49999999999999600, 17.50000000000000000, 3.000000000000000000 ) ) ;
#101 = EDGE_CURVE ( 'NONE', #210, #40, #208, .T. ) ;
#102 = DIRECTION ( 'NONE',  ( -0.0000000000000000000, -0.0000000000000000000, -1.000000000000000000 ) ) ;
#103 = CC_DESIGN_PERSON_AND_ORGANIZATION_ASSIGNMENT ( #34, #68, ( #200 ) ) ;
#104 = CARTESIAN_POINT ( 'NONE',  ( -17.50000000000000400, -17.50000000000000000, 3.000000000000000000 ) ) ;
#105 = EDGE_CURVE ( 'NONE', #163, #210, #175, .T. ) ;
#106 = DIRECTION ( 'NONE',  ( -1.000000000000000000, -0.0000000000000000000, -0.0000000000000000000 ) ) ;
#107 = ORIENTED_EDGE ( 'NONE', *, *, #18, .F. ) ;
#108 = PRODUCT_DEFINITION_SHAPE ( 'NONE', 'NONE',  #172 ) ;
#109 = FACE_OUTER_BOUND ( 'NONE', #72, .T. ) ;
#110 = ORIENTED_EDGE ( 'NONE', *, *, #223, .F. ) ;
#111 = CC_DESIGN_PERSON_AND_ORGANIZATION_ASSIGNMENT ( #160, #158, ( #200 ) ) ;
#112 = ORIENTED_EDGE ( 'NONE', *, *, #101, .T. ) ;
#113 = DIRECTION ( 'NONE',  ( 0.0000000000000000000, 0.0000000000000000000, 1.000000000000000000 ) ) ;
#114 = COORDINATED_UNIVERSAL_TIME_OFFSET ( 5, 0, .BEHIND. ) ;
#115 = SECURITY_CLASSIFICATION ( '', '', #204 ) ;
#116 = FACE_OUTER_BOUND ( 'NONE', #170, .T. ) ;
#117 = ORIENTED_EDGE ( 'NONE', *, *, #234, .F. ) ;
#118 = CARTESIAN_POINT ( 'NONE',  ( -17.50000000000000400, 17.50000000000000000, 0.0000000000000000000 ) ) ;
#119 = ORIENTED_EDGE ( 'NONE', *, *, #218, .T. ) ;
#120 = CARTESIAN_POINT ( 'NONE',  ( -17.50000000000000400, 17.50000000000000000, 0.0000000000000000000 ) ) ;
#121 = PERSON_AND_ORGANIZATION ( #157, #231 ) ;
#122 = DIRECTION ( 'NONE',  ( 0.0000000000000000000, 1.000000000000000000, 0.0000000000000000000 ) ) ;
#123 = DIRECTION ( 'NONE',  ( -0.0000000000000000000, -0.0000000000000000000, -1.000000000000000000 ) ) ;
#124 = FACE_OUTER_BOUND ( 'NONE', #90, .T. ) ;
#125 = AXIS2_PLACEMENT_3D ( 'NONE', #179, #26, #144 ) ;
#126 = CC_DESIGN_PERSON_AND_ORGANIZATION_ASSIGNMENT ( #211, #222, ( #115 ) ) ;
#127 = ORIENTED_EDGE ( 'NONE', *, *, #177, .T. ) ;
#128 = CC_DESIGN_PERSON_AND_ORGANIZATION_ASSIGNMENT ( #130, #43, ( #172 ) ) ;
#129 = DATE_TIME_ROLE ( 'classification_date' ) ;
#130 = PERSON_AND_ORGANIZATION ( #157, #231 ) ;
#131 = ORIENTED_EDGE ( 'NONE', *, *, #2, .F. ) ;
#132 = AXIS2_PLACEMENT_3D ( 'NONE', #133, #226, #17 ) ;
#133 = CARTESIAN_POINT ( 'NONE',  ( 17.49999999999999600, -17.50000000000000000, 3.000000000000000000 ) ) ;
#134 = ORIENTED_EDGE ( 'NONE', *, *, #74, .F. ) ;
#135 = DATE_AND_TIME ( #171, #30 ) ;
#136 = DIRECTION ( 'NONE',  ( 1.000000000000000000, 0.0000000000000000000, -0.0000000000000000000 ) ) ;
#137 = PLANE ( 'NONE',  #71 ) ;
#138 = DATE_AND_TIME ( #221, #59 ) ;
#139 = APPROVAL_DATE_TIME ( #142, #225 ) ;
#140 = DIRECTION ( 'NONE',  ( -1.000000000000000000, -9.912705577010325500E-017, 0.0000000000000000000 ) ) ;
#141 = FACE_OUTER_BOUND ( 'NONE', #63, .T. ) ;
#142 = DATE_AND_TIME ( #190, #41 ) ;
#143 = EDGE_LOOP ( 'NONE', ( #107, #214, #131, #22 ) ) ;
#144 = DIRECTION ( 'NONE',  ( 1.000000000000000000, 0.0000000000000000000, 0.0000000000000000000 ) ) ;
#145 =( LENGTH_UNIT ( ) NAMED_UNIT ( * ) SI_UNIT ( .MILLI., .METRE. ) );
#146 = SHAPE_DEFINITION_REPRESENTATION ( #108, #203 ) ;
#147 =( NAMED_UNIT ( * ) SI_UNIT ( $, .STERADIAN. ) SOLID_ANGLE_UNIT ( ) );
#148 = CARTESIAN_POINT ( 'NONE',  ( -17.50000000000000400, -17.50000000000000000, 0.0000000000000000000 ) ) ;
#149 = ADVANCED_FACE ( 'NONE', ( #109 ), #186, .F. ) ;
#150 = CARTESIAN_POINT ( 'NONE',  ( 17.49999999999999600, 17.50000000000000000, 0.0000000000000000000 ) ) ;
#151 = FACE_OUTER_BOUND ( 'NONE', #97, .T. ) ;
#152 = CARTESIAN_POINT ( 'NONE',  ( -17.50000000000000400, -17.50000000000000000, 3.000000000000000000 ) ) ;
#153 = CARTESIAN_POINT ( 'NONE',  ( 17.49999999999999600, -17.50000000000000000, 3.000000000000000000 ) ) ;
#154 = DIRECTION ( 'NONE',  ( -0.0000000000000000000, -0.0000000000000000000, -1.000000000000000000 ) ) ;
#155 = ORIENTED_EDGE ( 'NONE', *, *, #223, .T. ) ;
#156 = APPROVAL_DATE_TIME ( #138, #233 ) ;
#157 = PERSON ( 'UNSPECIFIED', 'UNSPECIFIED', 'UNSPECIFIED', ('UNSPECIFIED'), ('UNSPECIFIED'), ('UNSPECIFIED') ) ;
#158 = PERSON_AND_ORGANIZATION_ROLE ( 'design_supplier' ) ;
#159 = PERSON_AND_ORGANIZATION_ROLE ( 'design_owner' ) ;
#160 = PERSON_AND_ORGANIZATION ( #157, #231 ) ;
#161 = CC_DESIGN_APPROVAL ( #4, ( #115 ) ) ;
#162 = DIRECTION ( 'NONE',  ( 1.000000000000000000, 0.0000000000000000000, 0.0000000000000000000 ) ) ;
#163 = VERTEX_POINT ( 'NONE', #152 ) ;
#164 = ORIENTED_EDGE ( 'NONE', *, *, #180, .F. ) ;
#165 = COORDINATED_UNIVERSAL_TIME_OFFSET ( 5, 0, .BEHIND. ) ;
#166 = PERSON_AND_ORGANIZATION ( #157, #231 ) ;
#167 = CALENDAR_DATE ( 2017, 1, 2 ) ;
#168 = DIRECTION ( 'NONE',  ( -9.912705577010325500E-017, 1.000000000000000000, -0.0000000000000000000 ) ) ;
#169 = PLANE ( 'NONE',  #132 ) ;
#170 = EDGE_LOOP ( 'NONE', ( #11, #134, #70, #48 ) ) ;
#171 = CALENDAR_DATE ( 2017, 1, 2 ) ;
#172 = PRODUCT_DEFINITION ( 'UNKNOWN', '', #200, #75 ) ;
#173 = DIRECTION ( 'NONE',  ( 9.912705577010325500E-017, -1.000000000000000000, 0.0000000000000000000 ) ) ;
#174 = DIRECTION ( 'NONE',  ( 0.0000000000000000000, -0.0000000000000000000, 1.000000000000000000 ) ) ;
#175 = LINE ( 'NONE', #66, #39 ) ;
#176 = PERSON_AND_ORGANIZATION ( #157, #231 ) ;
#177 = EDGE_CURVE ( 'NONE', #210, #81, #20, .T. ) ;
#178 = CC_DESIGN_SECURITY_CLASSIFICATION ( #115, ( #200 ) ) ;
#179 = CARTESIAN_POINT ( 'NONE',  ( 17.49999999999999600, -17.50000000000000000, 0.0000000000000000000 ) ) ;
#180 = EDGE_CURVE ( 'NONE', #93, #57, #216, .T. ) ;
#181 = APPLICATION_CONTEXT ( 'configuration controlled 3d designs of mechanical parts and assemblies' ) ;
#182 = CC_DESIGN_DATE_AND_TIME_ASSIGNMENT ( #99, #129, ( #115 ) ) ;
#183 = VECTOR ( 'NONE', #102, 1000.000000000000000 ) ;
#184 = VECTOR ( 'NONE', #168, 1000.000000000000000 ) ;
#185 = LOCAL_TIME ( 10, 23, 43.00000000000000000, #114 ) ;
#186 = PLANE ( 'NONE',  #3 ) ;
#187 = EDGE_CURVE ( 'NONE', #93, #163, #31, .T. ) ;
#188 = CARTESIAN_POINT ( 'NONE',  ( -17.50000000000000400, -17.50000000000000000, 3.000000000000000000 ) ) ;
#189 = LINE ( 'NONE', #91, #45 ) ;
#190 = CALENDAR_DATE ( 2017, 1, 2 ) ;
#191 = APPROVAL_DATE_TIME ( #9, #4 ) ;
#192 = PLANE ( 'NONE',  #125 ) ;
#193 = LINE ( 'NONE', #150, #184 ) ;
#194 = DIRECTION ( 'NONE',  ( -1.000000000000000000, -0.0000000000000000000, -0.0000000000000000000 ) ) ;
#195 = CALENDAR_DATE ( 2017, 1, 2 ) ;
#196 = UNCERTAINTY_MEASURE_WITH_UNIT (LENGTH_MEASURE( 1.000000000000000100E-005 ), #145, 'distance_accuracy_value', 'NONE');
#197 = LINE ( 'NONE', #236, #12 ) ;
#198 = ORIENTED_EDGE ( 'NONE', *, *, #105, .F. ) ;
#199 = VECTOR ( 'NONE', #123, 1000.000000000000000 ) ;
#200 = PRODUCT_DEFINITION_FORMATION_WITH_SPECIFIED_SOURCE ( 'ANY', '', #80, .NOT_KNOWN. ) ;
#201 = VECTOR ( 'NONE', #23, 1000.000000000000000 ) ;
#202 = VECTOR ( 'NONE', #13, 1000.000000000000000 ) ;
#203 = ADVANCED_BREP_SHAPE_REPRESENTATION ( 'Web Model 83475', ( #28, #51 ), #25 ) ;
#204 = SECURITY_CLASSIFICATION_LEVEL ( 'unclassified' ) ;
#205 = PRODUCT_RELATED_PRODUCT_CATEGORY ( 'detail', '', ( #80 ) ) ;
#206 = LINE ( 'NONE', #148, #85 ) ;
#207 = ORIENTED_EDGE ( 'NONE', *, *, #105, .T. ) ;
#208 = LINE ( 'NONE', #52, #217 ) ;
#209 = DIRECTION ( 'NONE',  ( 0.0000000000000000000, -1.000000000000000000, 0.0000000000000000000 ) ) ;
#210 = VERTEX_POINT ( 'NONE', #153 ) ;
#211 = PERSON_AND_ORGANIZATION ( #157, #231 ) ;
#212 = APPROVAL_PERSON_ORGANIZATION ( #121, #233, #7 ) ;
#213 = CARTESIAN_POINT ( 'NONE',  ( -17.50000000000000400, 17.50000000000000000, 3.000000000000000000 ) ) ;
#214 = ORIENTED_EDGE ( 'NONE', *, *, #77, .F. ) ;
#215 = CARTESIAN_POINT ( 'NONE',  ( -17.50000000000000400, 17.50000000000000000, 3.000000000000000000 ) ) ;
#216 = LINE ( 'NONE', #215, #42 ) ;
#217 = VECTOR ( 'NONE', #228, 1000.000000000000000 ) ;
#218 = EDGE_CURVE ( 'NONE', #64, #57, #197, .T. ) ;
#219 = PERSON_AND_ORGANIZATION ( #157, #231 ) ;
#220 = ORIENTED_EDGE ( 'NONE', *, *, #234, .T. ) ;
#221 = CALENDAR_DATE ( 2017, 1, 2 ) ;
#222 = PERSON_AND_ORGANIZATION_ROLE ( 'classification_officer' ) ;
#223 = EDGE_CURVE ( 'NONE', #40, #64, #16, .T. ) ;
#224 = COORDINATED_UNIVERSAL_TIME_OFFSET ( 5, 0, .BEHIND. ) ;
#225 = APPROVAL ( #82, 'UNSPECIFIED' ) ;
#226 = DIRECTION ( 'NONE',  ( -0.0000000000000000000, 0.0000000000000000000, 1.000000000000000000 ) ) ;
#227 = ADVANCED_FACE ( 'NONE', ( #141 ), #137, .F. ) ;
#228 = DIRECTION ( 'NONE',  ( -9.912705577010325500E-017, 1.000000000000000000, -0.0000000000000000000 ) ) ;
#229 = ADVANCED_FACE ( 'NONE', ( #151 ), #53, .F. ) ;
#230 = CARTESIAN_POINT ( 'NONE',  ( -17.50000000000000400, -17.50000000000000000, 0.0000000000000000000 ) ) ;
#231 = ORGANIZATION ( 'UNSPECIFIED', 'UNSPECIFIED', '' ) ;
#232 = COORDINATED_UNIVERSAL_TIME_OFFSET ( 5, 0, .BEHIND. ) ;
#233 = APPROVAL ( #65, 'UNSPECIFIED' ) ;
#234 = EDGE_CURVE ( 'NONE', #40, #93, #189, .T. ) ;
#235 = ADVANCED_FACE ( 'NONE', ( #55 ), #192, .F. ) ;
#236 = CARTESIAN_POINT ( 'NONE',  ( -17.50000000000000400, 17.50000000000000000, 0.0000000000000000000 ) ) ;
#237 = CARTESIAN_POINT ( 'NONE',  ( 17.49999999999999600, 17.50000000000000000, 3.000000000000000000 ) ) ;
ENDSEC;
END-ISO-10303-21;
