ISO-10303-21;
HEADER;
FILE_DESCRIPTION (( 'STEP AP203' ),
    '1' );
FILE_NAME ('Web Model 19841_19873.step',
    '2022-04-06T15:14:52',
    ( 'WC' ),
    ( 'Windows Central' ),
    'SwSTEP 2.0',
    'SolidWorks 2021',
    '' );
FILE_SCHEMA (( 'CONFIG_CONTROL_DESIGN' ));
ENDSEC;

DATA;
#1 = EDGE_LOOP ( 'NONE', ( #154, #119, #56, #104 ) ) ;
#2 = DESIGN_CONTEXT ( 'detailed design', #166, 'design' ) ;
#3 = CC_DESIGN_PERSON_AND_ORGANIZATION_ASSIGNMENT ( #112, #146, ( #63 ) ) ;
#4 = CARTESIAN_POINT ( 'NONE',  ( 25.00000000000000000, 3.061616997868383043E-15, 1.000000000000000000 ) ) ;
#5 = ORIENTED_EDGE ( 'NONE', *, *, #118, .F. ) ;
#6 = EDGE_CURVE ( 'NONE', #103, #133, #158, .T. ) ;
#7 = CLOSED_SHELL ( 'NONE', ( #95, #32, #84, #165 ) ) ;
#8 = CC_DESIGN_PERSON_AND_ORGANIZATION_ASSIGNMENT ( #94, #115, ( #151 ) ) ;
#9 = CALENDAR_DATE ( 2022, 6, 4 ) ;
#10 = DIRECTION ( 'NONE',  ( 0.000000000000000000, 0.000000000000000000, 1.000000000000000000 ) ) ;
#11 = MECHANICAL_CONTEXT ( 'NONE', #34, 'mechanical' ) ;
#12 = DIRECTION ( 'NONE',  ( 0.000000000000000000, 0.000000000000000000, 1.000000000000000000 ) ) ;
#13 =( NAMED_UNIT ( * ) PLANE_ANGLE_UNIT ( ) SI_UNIT ( $, .RADIAN. ) );
#14 = PERSON_AND_ORGANIZATION ( #48, #57 ) ;
#15 = ORIENTED_EDGE ( 'NONE', *, *, #108, .T. ) ;
#16 = SECURITY_CLASSIFICATION ( '', '', #39 ) ;
#17 = PERSON_AND_ORGANIZATION ( #48, #57 ) ;
#18 = AXIS2_PLACEMENT_3D ( 'NONE', #78, #172, #91 ) ;
#19 = CIRCLE ( 'NONE', #111, 25.00000000000000000 ) ;
#20 = LOCAL_TIME ( 11, 14, 52.00000000000000000, #46 ) ;
#21 = MANIFOLD_SOLID_BREP ( 'Boss-Extrude1', #7 ) ;
#22 = APPROVAL ( #100, 'UNSPECIFIED' ) ;
#23 = APPROVAL_ROLE ( '' ) ;
#24 = DIRECTION ( 'NONE',  ( 0.000000000000000000, 0.000000000000000000, 1.000000000000000000 ) ) ;
#25 = DIRECTION ( 'NONE',  ( 1.000000000000000000, 0.000000000000000000, 0.000000000000000000 ) ) ;
#26 = APPROVAL_STATUS ( 'not_yet_approved' ) ;
#27 = CARTESIAN_POINT ( 'NONE',  ( -25.00000000000000000, 0.000000000000000000, 1.000000000000000000 ) ) ;
#28 =( LENGTH_UNIT ( ) NAMED_UNIT ( * ) SI_UNIT ( .MILLI., .METRE. ) );
#29 = COORDINATED_UNIVERSAL_TIME_OFFSET ( 5, 0, .BEHIND. ) ;
#30 = FACE_OUTER_BOUND ( 'NONE', #47, .T. ) ;
#31 = DATE_AND_TIME ( #149, #72 ) ;
#32 = ADVANCED_FACE ( 'NONE', ( #156 ), #41, .T. ) ;
#33 = PRODUCT_DEFINITION_SHAPE ( 'NONE', 'NONE',  #63 ) ;
#34 = APPLICATION_CONTEXT ( 'configuration controlled 3d designs of mechanical parts and assemblies' ) ;
#35 = AXIS2_PLACEMENT_3D ( 'NONE', #130, #12, #69 ) ;
#36 = VERTEX_POINT ( 'NONE', #99 ) ;
#37 = EDGE_CURVE ( 'NONE', #36, #121, #145, .T. ) ;
#38 = DATE_AND_TIME ( #126, #163 ) ;
#39 = SECURITY_CLASSIFICATION_LEVEL ( 'unclassified' ) ;
#40 = CC_DESIGN_SECURITY_CLASSIFICATION ( #16, ( #151 ) ) ;
#41 = CYLINDRICAL_SURFACE ( 'NONE', #18, 25.00000000000000000 ) ;
#42 = CARTESIAN_POINT ( 'NONE',  ( -25.00000000000000000, 0.000000000000000000, 0.000000000000000000 ) ) ;
#43 = COORDINATED_UNIVERSAL_TIME_OFFSET ( 5, 0, .BEHIND. ) ;
#44 = DIRECTION ( 'NONE',  ( -0.000000000000000000, -0.000000000000000000, -1.000000000000000000 ) ) ;
#45 = DIRECTION ( 'NONE',  ( 1.000000000000000000, 0.000000000000000000, -0.000000000000000000 ) ) ;
#46 = COORDINATED_UNIVERSAL_TIME_OFFSET ( 5, 0, .BEHIND. ) ;
#47 = EDGE_LOOP ( 'NONE', ( #162, #61, #116, #65 ) ) ;
#48 = PERSON ( 'UNSPECIFIED', 'UNSPECIFIED', 'UNSPECIFIED', ('UNSPECIFIED'), ('UNSPECIFIED'), ('UNSPECIFIED') ) ;
#49 = APPROVAL ( #26, 'UNSPECIFIED' ) ;
#50 = AXIS2_PLACEMENT_3D ( 'NONE', #143, #148, #45 ) ;
#51 = UNCERTAINTY_MEASURE_WITH_UNIT (LENGTH_MEASURE( 1.000000000000000082E-05 ), #28, 'distance_accuracy_value', 'NONE');
#52 = AXIS2_PLACEMENT_3D ( 'NONE', #101, #58, #159 ) ;
#53 = APPROVAL_STATUS ( 'not_yet_approved' ) ;
#54 = CARTESIAN_POINT ( 'NONE',  ( 0.000000000000000000, 0.000000000000000000, 0.000000000000000000 ) ) ;
#55 = APPLICATION_PROTOCOL_DEFINITION ( 'international standard', 'config_control_design', 1994, #34 ) ;
#56 = ORIENTED_EDGE ( 'NONE', *, *, #37, .T. ) ;
#57 = ORGANIZATION ( 'UNSPECIFIED', 'UNSPECIFIED', '' ) ;
#58 = DIRECTION ( 'NONE',  ( -0.000000000000000000, -0.000000000000000000, -1.000000000000000000 ) ) ;
#59 = CARTESIAN_POINT ( 'NONE',  ( 0.000000000000000000, 0.000000000000000000, 1.000000000000000000 ) ) ;
#60 = PERSON_AND_ORGANIZATION_ROLE ( 'design_owner' ) ;
#61 = ORIENTED_EDGE ( 'NONE', *, *, #6, .T. ) ;
#62 = CIRCLE ( 'NONE', #142, 25.00000000000000000 ) ;
#63 = PRODUCT_DEFINITION ( 'UNKNOWN', '', #151, #2 ) ;
#64 = APPROVAL_PERSON_ORGANIZATION ( #14, #22, #23 ) ;
#65 = ORIENTED_EDGE ( 'NONE', *, *, #37, .F. ) ;
#66 = DATE_AND_TIME ( #9, #134 ) ;
#67 = DIRECTION ( 'NONE',  ( 1.000000000000000000, 0.000000000000000000, 0.000000000000000000 ) ) ;
#68 = APPLICATION_PROTOCOL_DEFINITION ( 'international standard', 'config_control_design', 1994, #166 ) ;
#69 = DIRECTION ( 'NONE',  ( 1.000000000000000000, 0.000000000000000000, -0.000000000000000000 ) ) ;
#70 =( NAMED_UNIT ( * ) SI_UNIT ( $, .STERADIAN. ) SOLID_ANGLE_UNIT ( ) );
#71 = APPROVAL_DATE_TIME ( #132, #125 ) ;
#72 = LOCAL_TIME ( 11, 14, 52.00000000000000000, #102 ) ;
#73 = DATE_AND_TIME ( #89, #105 ) ;
#74 = CC_DESIGN_DATE_AND_TIME_ASSIGNMENT ( #31, #135, ( #16 ) ) ;
#75 = CIRCLE ( 'NONE', #88, 25.00000000000000000 ) ;
#76 = CC_DESIGN_PERSON_AND_ORGANIZATION_ASSIGNMENT ( #98, #161, ( #151 ) ) ;
#77 = PERSON_AND_ORGANIZATION ( #48, #57 ) ;
#78 = CARTESIAN_POINT ( 'NONE',  ( 0.000000000000000000, 0.000000000000000000, 1.000000000000000000 ) ) ;
#79 = APPROVAL_ROLE ( '' ) ;
#80 = DIRECTION ( 'NONE',  ( -0.000000000000000000, -0.000000000000000000, -1.000000000000000000 ) ) ;
#81 = CARTESIAN_POINT ( 'NONE',  ( 0.000000000000000000, 0.000000000000000000, 0.000000000000000000 ) ) ;
#82 = CALENDAR_DATE ( 2022, 6, 4 ) ;
#83 = DIRECTION ( 'NONE',  ( 0.000000000000000000, 0.000000000000000000, 1.000000000000000000 ) ) ;
#84 = ADVANCED_FACE ( 'NONE', ( #110 ), #169, .T. ) ;
#85 = CC_DESIGN_APPROVAL ( #22, ( #63 ) ) ;
#86 = ADVANCED_BREP_SHAPE_REPRESENTATION ( 'Web Model 19841_19873', ( #21, #139 ), #123 ) ;
#87 = ORIENTED_EDGE ( 'NONE', *, *, #122, .T. ) ;
#88 = AXIS2_PLACEMENT_3D ( 'NONE', #54, #10, #67 ) ;
#89 = CALENDAR_DATE ( 2022, 6, 4 ) ;
#90 = PERSON_AND_ORGANIZATION_ROLE ( 'classification_officer' ) ;
#91 = DIRECTION ( 'NONE',  ( -1.000000000000000000, 0.000000000000000000, 0.000000000000000000 ) ) ;
#92 = CARTESIAN_POINT ( 'NONE',  ( 25.00000000000000000, 3.061616997868383043E-15, 1.000000000000000000 ) ) ;
#93 = DIRECTION ( 'NONE',  ( 1.000000000000000000, 0.000000000000000000, 0.000000000000000000 ) ) ;
#94 = PERSON_AND_ORGANIZATION ( #48, #57 ) ;
#95 = ADVANCED_FACE ( 'NONE', ( #30 ), #113, .T. ) ;
#96 = SHAPE_DEFINITION_REPRESENTATION ( #33, #86 ) ;
#97 = CC_DESIGN_PERSON_AND_ORGANIZATION_ASSIGNMENT ( #17, #90, ( #16 ) ) ;
#98 = PERSON_AND_ORGANIZATION ( #48, #57 ) ;
#99 = CARTESIAN_POINT ( 'NONE',  ( -25.00000000000000000, 0.000000000000000000, 1.000000000000000000 ) ) ;
#100 = APPROVAL_STATUS ( 'not_yet_approved' ) ;
#101 = CARTESIAN_POINT ( 'NONE',  ( 0.000000000000000000, 0.000000000000000000, 1.000000000000000000 ) ) ;
#102 = COORDINATED_UNIVERSAL_TIME_OFFSET ( 5, 0, .BEHIND. ) ;
#103 = VERTEX_POINT ( 'NONE', #92 ) ;
#104 = ORIENTED_EDGE ( 'NONE', *, *, #118, .T. ) ;
#105 = LOCAL_TIME ( 11, 14, 52.00000000000000000, #170 ) ;
#106 = CIRCLE ( 'NONE', #138, 25.00000000000000000 ) ;
#107 = PRODUCT ( 'Web Model 19841_19873', 'Web Model 19841_19873', '', ( #11 ) ) ;
#108 = EDGE_CURVE ( 'NONE', #36, #103, #62, .T. ) ;
#109 = CARTESIAN_POINT ( 'NONE',  ( 0.000000000000000000, 0.000000000000000000, 0.000000000000000000 ) ) ;
#110 = FACE_OUTER_BOUND ( 'NONE', #141, .T. ) ;
#111 = AXIS2_PLACEMENT_3D ( 'NONE', #81, #131, #25 ) ;
#112 = PERSON_AND_ORGANIZATION ( #48, #57 ) ;
#113 = CYLINDRICAL_SURFACE ( 'NONE', #52, 25.00000000000000000 ) ;
#114 = FACE_OUTER_BOUND ( 'NONE', #136, .T. ) ;
#115 = PERSON_AND_ORGANIZATION_ROLE ( 'design_supplier' ) ;
#116 = ORIENTED_EDGE ( 'NONE', *, *, #152, .T. ) ;
#117 = APPROVAL_ROLE ( '' ) ;
#118 = EDGE_CURVE ( 'NONE', #121, #133, #75, .T. ) ;
#119 = ORIENTED_EDGE ( 'NONE', *, *, #108, .F. ) ;
#120 = VECTOR ( 'NONE', #80, 1000.000000000000000 ) ;
#121 = VERTEX_POINT ( 'NONE', #42 ) ;
#122 = EDGE_CURVE ( 'NONE', #103, #36, #106, .T. ) ;
#123 =( GEOMETRIC_REPRESENTATION_CONTEXT ( 3 ) GLOBAL_UNCERTAINTY_ASSIGNED_CONTEXT ( ( #51 ) ) GLOBAL_UNIT_ASSIGNED_CONTEXT ( ( #28, #13, #70 ) ) REPRESENTATION_CONTEXT ( 'NONE', 'WORKASPACE' ) );
#124 = APPROVAL_PERSON_ORGANIZATION ( #174, #125, #117 ) ;
#125 = APPROVAL ( #53, 'UNSPECIFIED' ) ;
#126 = CALENDAR_DATE ( 2022, 6, 4 ) ;
#127 = DIRECTION ( 'NONE',  ( 1.000000000000000000, 0.000000000000000000, 0.000000000000000000 ) ) ;
#128 = DIRECTION ( 'NONE',  ( 0.000000000000000000, 0.000000000000000000, 1.000000000000000000 ) ) ;
#129 = DIRECTION ( 'NONE',  ( 1.000000000000000000, 0.000000000000000000, 0.000000000000000000 ) ) ;
#130 = CARTESIAN_POINT ( 'NONE',  ( 0.000000000000000000, 0.000000000000000000, 1.000000000000000000 ) ) ;
#131 = DIRECTION ( 'NONE',  ( 0.000000000000000000, 0.000000000000000000, 1.000000000000000000 ) ) ;
#132 = DATE_AND_TIME ( #82, #20 ) ;
#133 = VERTEX_POINT ( 'NONE', #160 ) ;
#134 = LOCAL_TIME ( 11, 14, 52.00000000000000000, #29 ) ;
#135 = DATE_TIME_ROLE ( 'classification_date' ) ;
#136 = EDGE_LOOP ( 'NONE', ( #5, #175 ) ) ;
#137 = CC_DESIGN_DATE_AND_TIME_ASSIGNMENT ( #66, #168, ( #63 ) ) ;
#138 = AXIS2_PLACEMENT_3D ( 'NONE', #59, #128, #93 ) ;
#139 = AXIS2_PLACEMENT_3D ( 'NONE', #109, #83, #129 ) ;
#140 = APPROVAL_PERSON_ORGANIZATION ( #144, #49, #79 ) ;
#141 = EDGE_LOOP ( 'NONE', ( #15, #87 ) ) ;
#142 = AXIS2_PLACEMENT_3D ( 'NONE', #147, #24, #127 ) ;
#143 = CARTESIAN_POINT ( 'NONE',  ( 0.000000000000000000, 0.000000000000000000, 0.000000000000000000 ) ) ;
#144 = PERSON_AND_ORGANIZATION ( #48, #57 ) ;
#145 = LINE ( 'NONE', #27, #120 ) ;
#146 = PERSON_AND_ORGANIZATION_ROLE ( 'creator' ) ;
#147 = CARTESIAN_POINT ( 'NONE',  ( 0.000000000000000000, 0.000000000000000000, 1.000000000000000000 ) ) ;
#148 = DIRECTION ( 'NONE',  ( 0.000000000000000000, 0.000000000000000000, 1.000000000000000000 ) ) ;
#149 = CALENDAR_DATE ( 2022, 6, 4 ) ;
#150 = CC_DESIGN_PERSON_AND_ORGANIZATION_ASSIGNMENT ( #77, #60, ( #107 ) ) ;
#151 = PRODUCT_DEFINITION_FORMATION_WITH_SPECIFIED_SOURCE ( 'ANY', '', #107, .NOT_KNOWN. ) ;
#152 = EDGE_CURVE ( 'NONE', #133, #121, #19, .T. ) ;
#153 = PRODUCT_RELATED_PRODUCT_CATEGORY ( 'detail', '', ( #107 ) ) ;
#154 = ORIENTED_EDGE ( 'NONE', *, *, #6, .F. ) ;
#155 = CC_DESIGN_APPROVAL ( #125, ( #151 ) ) ;
#156 = FACE_OUTER_BOUND ( 'NONE', #1, .T. ) ;
#157 = PLANE ( 'NONE',  #50 ) ;
#158 = LINE ( 'NONE', #4, #164 ) ;
#159 = DIRECTION ( 'NONE',  ( -1.000000000000000000, 0.000000000000000000, 0.000000000000000000 ) ) ;
#160 = CARTESIAN_POINT ( 'NONE',  ( 25.00000000000000000, 3.061616997868383043E-15, 0.000000000000000000 ) ) ;
#161 = PERSON_AND_ORGANIZATION_ROLE ( 'creator' ) ;
#162 = ORIENTED_EDGE ( 'NONE', *, *, #122, .F. ) ;
#163 = LOCAL_TIME ( 11, 14, 52.00000000000000000, #43 ) ;
#164 = VECTOR ( 'NONE', #44, 1000.000000000000000 ) ;
#165 = ADVANCED_FACE ( 'NONE', ( #114 ), #157, .F. ) ;
#166 = APPLICATION_CONTEXT ( 'configuration controlled 3d designs of mechanical parts and assemblies' ) ;
#167 = APPROVAL_DATE_TIME ( #73, #49 ) ;
#168 = DATE_TIME_ROLE ( 'creation_date' ) ;
#169 = PLANE ( 'NONE',  #35 ) ;
#170 = COORDINATED_UNIVERSAL_TIME_OFFSET ( 5, 0, .BEHIND. ) ;
#171 = CC_DESIGN_APPROVAL ( #49, ( #16 ) ) ;
#172 = DIRECTION ( 'NONE',  ( -0.000000000000000000, -0.000000000000000000, -1.000000000000000000 ) ) ;
#173 = APPROVAL_DATE_TIME ( #38, #22 ) ;
#174 = PERSON_AND_ORGANIZATION ( #48, #57 ) ;
#175 = ORIENTED_EDGE ( 'NONE', *, *, #152, .F. ) ;
ENDSEC;
END-ISO-10303-21;
