ISO-10303-21;
HEADER;
FILE_DESCRIPTION (( 'STEP AP214' ),
    '1' );
FILE_NAME ('3498-E0W.STEP',
    '2010-12-06T18:28:18',
    ( 'Admin' ),
    ( 'Thorlabs, Inc.' ),
    'SwSTEP 2.0',
    'SolidWorks 2009',
    '' );
FILE_SCHEMA (( 'AUTOMOTIVE_DESIGN' ));
ENDSEC;

DATA;
#1 = ORIENTED_EDGE ( 'NONE', *, *, #75, .T. ) ;
#2 = ORIENTED_EDGE ( 'NONE', *, *, #75, .F. ) ;
#3 = EDGE_CURVE ( 'NONE', #64, #141, #68, .T. ) ;
#4 = ORIENTED_EDGE ( 'NONE', *, *, #3, .F. ) ;
#5 = EDGE_CURVE ( 'NONE', #6, #7, #77, .T. ) ;
#6 = VERTEX_POINT ( 'NONE', #70 ) ;
#7 = VERTEX_POINT ( 'NONE', #142 ) ;
#8 = ORIENTED_EDGE ( 'NONE', *, *, #9, .T. ) ;
#9 = EDGE_CURVE ( 'NONE', #6, #12, #100, .T. ) ;
#10 = EDGE_LOOP ( 'NONE', ( #35, #8, #13, #47 ) ) ;
#11 = MANIFOLD_SOLID_BREP ( 'NONE', #136 ) ;
#12 = VERTEX_POINT ( 'NONE', #80 ) ;
#13 = ORIENTED_EDGE ( 'NONE', *, *, #14, .T. ) ;
#14 = EDGE_CURVE ( 'NONE', #12, #15, #133, .T. ) ;
#15 = VERTEX_POINT ( 'NONE', #134 ) ;
#16 = ADVANCED_FACE ( 'NONE', ( #117 ), #119, .T. ) ;
#17 = ORIENTED_EDGE ( 'NONE', *, *, #18, .F. ) ;
#18 = EDGE_CURVE ( 'NONE', #15, #12, #89, .T. ) ;
#19 = ORIENTED_EDGE ( 'NONE', *, *, #103, .F. ) ;
#20 = EDGE_LOOP ( 'NONE', ( #19, #26, #4 ) ) ;
#21 = ORIENTED_EDGE ( 'NONE', *, *, #28, .F. ) ;
#22 = ORIENTED_EDGE ( 'NONE', *, *, #23, .F. ) ;
#23 = EDGE_CURVE ( 'NONE', #7, #6, #149, .T. ) ;
#24 = ORIENTED_EDGE ( 'NONE', *, *, #50, .F. ) ;
#25 = ORIENTED_EDGE ( 'NONE', *, *, #62, .T. ) ;
#26 = ORIENTED_EDGE ( 'NONE', *, *, #28, .T. ) ;
#27 = ADVANCED_FACE ( 'NONE', ( #169 ), #186, .T. ) ;
#28 = EDGE_CURVE ( 'NONE', #41, #141, #207, .T. ) ;
#29 = ADVANCED_FACE ( 'NONE', ( #208 ), #151, .T. ) ;
#30 = ADVANCED_FACE ( 'NONE', ( #183 ), #160, .T. ) ;
#31 = ORIENTED_EDGE ( 'NONE', *, *, #32, .T. ) ;
#32 = EDGE_CURVE ( 'NONE', #33, #52, #293, .T. ) ;
#33 = VERTEX_POINT ( 'NONE', #313 ) ;
#34 = ADVANCED_FACE ( 'NONE', ( #291 ), #326, .T. ) ;
#35 = ORIENTED_EDGE ( 'NONE', *, *, #5, .F. ) ;
#36 = EDGE_LOOP ( 'NONE', ( #43, #22, #37, #38 ) ) ;
#37 = ORIENTED_EDGE ( 'NONE', *, *, #48, .T. ) ;
#38 = ORIENTED_EDGE ( 'NONE', *, *, #18, .T. ) ;
#39 = ORIENTED_EDGE ( 'NONE', *, *, #55, .F. ) ;
#40 = ORIENTED_EDGE ( 'NONE', *, *, #45, .F. ) ;
#41 = VERTEX_POINT ( 'NONE', #228 ) ;
#42 = ADVANCED_FACE ( 'NONE', ( #289 ), #273, .T. ) ;
#43 = ORIENTED_EDGE ( 'NONE', *, *, #9, .F. ) ;
#44 = ORIENTED_EDGE ( 'NONE', *, *, #57, .F. ) ;
#45 = EDGE_CURVE ( 'NONE', #41, #52, #320, .T. ) ;
#46 = ORIENTED_EDGE ( 'NONE', *, *, #14, .F. ) ;
#47 = ORIENTED_EDGE ( 'NONE', *, *, #48, .F. ) ;
#48 = EDGE_CURVE ( 'NONE', #7, #15, #316, .T. ) ;
#49 = EDGE_LOOP ( 'NONE', ( #31, #51, #46, #2 ) ) ;
#50 = EDGE_CURVE ( 'NONE', #52, #15, #261, .T. ) ;
#51 = ORIENTED_EDGE ( 'NONE', *, *, #50, .T. ) ;
#52 = VERTEX_POINT ( 'NONE', #220 ) ;
#53 =( LENGTH_UNIT ( ) NAMED_UNIT ( * ) SI_UNIT ( .MILLI., .METRE. ) );
#54 = ORIENTED_EDGE ( 'NONE', *, *, #32, .F. ) ;
#55 = EDGE_CURVE ( 'NONE', #64, #41, #219, .T. ) ;
#56 = EDGE_LOOP ( 'NONE', ( #58, #76, #54, #44 ) ) ;
#57 = EDGE_CURVE ( 'NONE', #64, #33, #280, .T. ) ;
#58 = ORIENTED_EDGE ( 'NONE', *, *, #55, .T. ) ;
#59 = EDGE_LOOP ( 'NONE', ( #21, #39, #74 ) ) ;
#60 = ADVANCED_FACE ( 'NONE', ( #276 ), #300, .F. ) ;
#61 = ORIENTED_EDGE ( 'NONE', *, *, #62, .F. ) ;
#62 = EDGE_CURVE ( 'NONE', #52, #33, #251, .T. ) ;
#63 = EDGE_LOOP ( 'NONE', ( #24, #25, #1, #17 ) ) ;
#64 = VERTEX_POINT ( 'NONE', #243 ) ;
#65 = ADVANCED_FACE ( 'NONE', ( #242 ), #330, .F. ) ;
#66 = CARTESIAN_POINT ( 'NONE',  ( 0.0000000000000000000, -2.752994890692719800E-016, 36.25000000000000700 ) ) ;
#67 =( NAMED_UNIT ( * ) PLANE_ANGLE_UNIT ( ) SI_UNIT ( $, .RADIAN. ) );
#68 = CIRCLE ( 'NONE', #79, 34.50000000000000000 ) ;
#69 = CARTESIAN_POINT ( 'NONE',  ( 0.0000000000000000000, 1.775983899502545100E-015, -1.750000000000000900 ) ) ;
#70 = CARTESIAN_POINT ( 'NONE',  ( 7.689657601064900300E-016, 6.208578643762691300, -1.749999999999998900 ) ) ;
#71 = DIRECTION ( 'NONE',  ( 0.0000000000000000000, 1.000000000000000000, 3.143334444888611200E-016 ) ) ;
#72 = DIRECTION ( 'NONE',  ( -0.0000000000000000000, 3.061616997868383100E-016, -1.000000000000000000 ) ) ;
#73 = ADVANCED_FACE ( 'NONE', ( #354 ), #350, .T. ) ;
#74 = ORIENTED_EDGE ( 'NONE', *, *, #3, .T. ) ;
#75 = EDGE_CURVE ( 'NONE', #33, #12, #358, .T. ) ;
#76 = ORIENTED_EDGE ( 'NONE', *, *, #45, .T. ) ;
#77 = CIRCLE ( 'NONE', #104, 6.208578643762689500 ) ;
#78 = ORIENTED_EDGE ( 'NONE', *, *, #5, .T. ) ;
#79 = AXIS2_PLACEMENT_3D ( 'NONE', #66, #106, #105 ) ;
#80 = CARTESIAN_POINT ( 'NONE',  ( 0.0000000000000000000, 6.350000000000000500, -1.608578643762689400 ) ) ;
#81 =( GEOMETRIC_REPRESENTATION_CONTEXT ( 3 ) GLOBAL_UNCERTAINTY_ASSIGNED_CONTEXT ( ( #127 ) ) GLOBAL_UNIT_ASSIGNED_CONTEXT ( ( #140, #139, #128 ) ) REPRESENTATION_CONTEXT ( 'NONE', 'WORKASPACE' ) );
#82 = ORIENTED_EDGE ( 'NONE', *, *, #57, .T. ) ;
#83 = CARTESIAN_POINT ( 'NONE',  ( 0.0000000000000000000, 1.732686096690770200E-015, -1.608578643762691400 ) ) ;
#84 = AXIS2_PLACEMENT_3D ( 'NONE', #83, #144, #143 ) ;
#85 = MECHANICAL_DESIGN_GEOMETRIC_PRESENTATION_REPRESENTATION (  '', ( #234 ), #332 ) ;
#86 = DIRECTION ( 'NONE',  ( 0.0000000000000000000, 1.000000000000000000, 3.073328992872296400E-016 ) ) ;
#87 = DIRECTION ( 'NONE',  ( -0.0000000000000000000, 3.061616997868383100E-016, -1.000000000000000000 ) ) ;
#88 = AXIS2_PLACEMENT_3D ( 'NONE', #118, #87, #86 ) ;
#89 = CIRCLE ( 'NONE', #84, 6.349999999999998800 ) ;
#90 = MECHANICAL_DESIGN_GEOMETRIC_PRESENTATION_REPRESENTATION (  '', ( #92 ), #81 ) ;
#91 = PRESENTATION_LAYER_ASSIGNMENT (  '', '', ( #92 ) ) ;
#92 = STYLED_ITEM ( 'NONE', ( #93 ), #11 ) ;
#93 = PRESENTATION_STYLE_ASSIGNMENT (( #94 ) ) ;
#94 = SURFACE_STYLE_USAGE ( .BOTH. , #95 ) ;
#95 = SURFACE_SIDE_STYLE ('',( #96 ) ) ;
#96 = SURFACE_STYLE_FILL_AREA ( #97 ) ;
#97 = FILL_AREA_STYLE ('',( #101 ) ) ;
#98 = VECTOR ( 'NONE', #138, 999.9999999999998900 ) ;
#99 = CARTESIAN_POINT ( 'NONE',  ( 7.603064855357707200E-016, 6.208578643762691300, -1.749999999999998900 ) ) ;
#100 = LINE ( 'NONE', #99, #98 ) ;
#101 = FILL_AREA_STYLE_COLOUR ( '', #137 ) ;
#102 = ORIENTED_EDGE ( 'NONE', *, *, #103, .T. ) ;
#103 = EDGE_CURVE ( 'NONE', #41, #64, #366, .T. ) ;
#104 = AXIS2_PLACEMENT_3D ( 'NONE', #69, #72, #71 ) ;
#105 = DIRECTION ( 'NONE',  ( 0.0000000000000000000, 0.0000000000000000000, 1.000000000000000000 ) ) ;
#106 = DIRECTION ( 'NONE',  ( -1.000000000000000000, 0.0000000000000000000, 0.0000000000000000000 ) ) ;
#107 = MECHANICAL_DESIGN_GEOMETRIC_PRESENTATION_REPRESENTATION (  '', ( #109 ), #120 ) ;
#108 = PRESENTATION_LAYER_ASSIGNMENT (  '', '', ( #109 ) ) ;
#109 = STYLED_ITEM ( 'NONE', ( #110 ), #16 ) ;
#110 = PRESENTATION_STYLE_ASSIGNMENT (( #111 ) ) ;
#111 = SURFACE_STYLE_USAGE ( .BOTH. , #112 ) ;
#112 = SURFACE_SIDE_STYLE ('',( #113 ) ) ;
#113 = SURFACE_STYLE_FILL_AREA ( #114 ) ;
#114 = FILL_AREA_STYLE ('',( #115 ) ) ;
#115 = FILL_AREA_STYLE_COLOUR ( '', #116 ) ;
#116 = COLOUR_RGB ( '',0.7529411764705882200, 0.7529411764705882200, 0.7529411764705882200 ) ;
#117 = FACE_OUTER_BOUND ( 'NONE', #63, .T. ) ;
#118 = CARTESIAN_POINT ( 'NONE',  ( 0.0000000000000000000, 1.775983899502544700E-015, -1.750000000000000000 ) ) ;
#119 = CYLINDRICAL_SURFACE ( 'NONE', #88, 6.349999999999999600 ) ;
#120 =( GEOMETRIC_REPRESENTATION_CONTEXT ( 3 ) GLOBAL_UNCERTAINTY_ASSIGNED_CONTEXT ( ( #121 ) ) GLOBAL_UNIT_ASSIGNED_CONTEXT ( ( #125, #124, #123 ) ) REPRESENTATION_CONTEXT ( 'NONE', 'WORKASPACE' ) );
#121 = UNCERTAINTY_MEASURE_WITH_UNIT (LENGTH_MEASURE( 1.000000000000000100E-005 ), #125, 'distance_accuracy_value', 'NONE');
#122 = EDGE_LOOP ( 'NONE', ( #40, #102, #82, #61 ) ) ;
#123 =( NAMED_UNIT ( * ) SI_UNIT ( $, .STERADIAN. ) SOLID_ANGLE_UNIT ( ) );
#124 =( NAMED_UNIT ( * ) PLANE_ANGLE_UNIT ( ) SI_UNIT ( $, .RADIAN. ) );
#125 =( LENGTH_UNIT ( ) NAMED_UNIT ( * ) SI_UNIT ( .MILLI., .METRE. ) );
#126 = EDGE_LOOP ( 'NONE', ( #135, #78 ) ) ;
#127 = UNCERTAINTY_MEASURE_WITH_UNIT (LENGTH_MEASURE( 1.000000000000000100E-005 ), #140, 'distance_accuracy_value', 'NONE');
#128 =( NAMED_UNIT ( * ) SI_UNIT ( $, .STERADIAN. ) SOLID_ANGLE_UNIT ( ) );
#129 = DIRECTION ( 'NONE',  ( 0.0000000000000000000, 1.000000000000000000, 3.073328992872296900E-016 ) ) ;
#130 = DIRECTION ( 'NONE',  ( -0.0000000000000000000, 3.061616997868383100E-016, -1.000000000000000000 ) ) ;
#131 = CARTESIAN_POINT ( 'NONE',  ( 0.0000000000000000000, 1.732686096690770200E-015, -1.608578643762691400 ) ) ;
#132 = AXIS2_PLACEMENT_3D ( 'NONE', #131, #130, #129 ) ;
#133 = CIRCLE ( 'NONE', #132, 6.349999999999998800 ) ;
#134 = CARTESIAN_POINT ( 'NONE',  ( 7.776250346772094400E-016, -6.349999999999997000, -1.608578643762693400 ) ) ;
#135 = ORIENTED_EDGE ( 'NONE', *, *, #23, .T. ) ;
#136 = CLOSED_SHELL ( 'NONE', ( #34, #30, #29, #60, #65, #27, #16, #42, #73 ) ) ;
#137 = COLOUR_RGB ( '',0.7960784313725489700, 0.8235294117647058400, 0.9372549019607843100 ) ;
#138 = DIRECTION ( 'NONE',  ( 8.659274570719361600E-017, 0.7071067811865479100, 0.7071067811865472400 ) ) ;
#139 =( NAMED_UNIT ( * ) PLANE_ANGLE_UNIT ( ) SI_UNIT ( $, .RADIAN. ) );
#140 =( LENGTH_UNIT ( ) NAMED_UNIT ( * ) SI_UNIT ( .MILLI., .METRE. ) );
#141 = VERTEX_POINT ( 'NONE', #367 ) ;
#142 = CARTESIAN_POINT ( 'NONE',  ( 0.0000000000000000000, -6.208578643762687800, -1.750000000000002900 ) ) ;
#143 = DIRECTION ( 'NONE',  ( 0.0000000000000000000, 1.000000000000000000, 3.073328992872296900E-016 ) ) ;
#144 = DIRECTION ( 'NONE',  ( -0.0000000000000000000, 3.061616997868383100E-016, -1.000000000000000000 ) ) ;
#145 = PRESENTATION_STYLE_ASSIGNMENT (( #146 ) ) ;
#146 = SURFACE_STYLE_USAGE ( .BOTH. , #147 ) ;
#147 = SURFACE_SIDE_STYLE ('',( #148 ) ) ;
#148 = SURFACE_STYLE_FILL_AREA ( #215 ) ;
#149 = CIRCLE ( 'NONE', #168, 6.208578643762689500 ) ;
#150 = AXIS2_PLACEMENT_3D ( 'NONE', #182, #181, #180 ) ;
#151 = CONICAL_SURFACE ( 'NONE', #150, 6.350000000000000500, 0.7853981633974482800 ) ;
#152 =( GEOMETRIC_REPRESENTATION_CONTEXT ( 3 ) GLOBAL_UNCERTAINTY_ASSIGNED_CONTEXT ( ( #153 ) ) GLOBAL_UNIT_ASSIGNED_CONTEXT ( ( #188, #187, #154 ) ) REPRESENTATION_CONTEXT ( 'NONE', 'WORKASPACE' ) );
#153 = UNCERTAINTY_MEASURE_WITH_UNIT (LENGTH_MEASURE( 1.000000000000000100E-005 ), #188, 'distance_accuracy_value', 'NONE');
#154 =( NAMED_UNIT ( * ) SI_UNIT ( $, .STERADIAN. ) SOLID_ANGLE_UNIT ( ) );
#155 = DIRECTION ( 'NONE',  ( 0.0000000000000000000, 1.000000000000000000, 3.073328992872296400E-016 ) ) ;
#156 = DIRECTION ( 'NONE',  ( -0.0000000000000000000, 3.061616997868383100E-016, -1.000000000000000000 ) ) ;
#157 = CARTESIAN_POINT ( 'NONE',  ( 0.0000000000000000000, 1.775983899502544700E-015, -1.750000000000000000 ) ) ;
#158 = AXIS2_PLACEMENT_3D ( 'NONE', #157, #156, #155 ) ;
#159 =( LENGTH_UNIT ( ) NAMED_UNIT ( * ) SI_UNIT ( .MILLI., .METRE. ) );
#160 = CYLINDRICAL_SURFACE ( 'NONE', #158, 6.349999999999999600 ) ;
#161 =( GEOMETRIC_REPRESENTATION_CONTEXT ( 3 ) GLOBAL_UNCERTAINTY_ASSIGNED_CONTEXT ( ( #162 ) ) GLOBAL_UNIT_ASSIGNED_CONTEXT ( ( #170, #164, #163 ) ) REPRESENTATION_CONTEXT ( 'NONE', 'WORKASPACE' ) );
#162 = UNCERTAINTY_MEASURE_WITH_UNIT (LENGTH_MEASURE( 1.000000000000000100E-005 ), #170, 'distance_accuracy_value', 'NONE');
#163 =( NAMED_UNIT ( * ) SI_UNIT ( $, .STERADIAN. ) SOLID_ANGLE_UNIT ( ) );
#164 =( NAMED_UNIT ( * ) PLANE_ANGLE_UNIT ( ) SI_UNIT ( $, .RADIAN. ) );
#165 =( NAMED_UNIT ( * ) PLANE_ANGLE_UNIT ( ) SI_UNIT ( $, .RADIAN. ) );
#166 = DIRECTION ( 'NONE',  ( -0.0000000000000000000, 3.061616997868383100E-016, -1.000000000000000000 ) ) ;
#167 = CARTESIAN_POINT ( 'NONE',  ( 0.0000000000000000000, 1.775983899502545100E-015, -1.750000000000000900 ) ) ;
#168 = AXIS2_PLACEMENT_3D ( 'NONE', #167, #166, #218 ) ;
#169 = FACE_OUTER_BOUND ( 'NONE', #122, .T. ) ;
#170 =( LENGTH_UNIT ( ) NAMED_UNIT ( * ) SI_UNIT ( .MILLI., .METRE. ) );
#171 = MECHANICAL_DESIGN_GEOMETRIC_PRESENTATION_REPRESENTATION (  '', ( #173 ), #161 ) ;
#172 = PRESENTATION_LAYER_ASSIGNMENT (  '', '', ( #173 ) ) ;
#173 = STYLED_ITEM ( 'NONE', ( #174 ), #30 ) ;
#174 = PRESENTATION_STYLE_ASSIGNMENT (( #175 ) ) ;
#175 = SURFACE_STYLE_USAGE ( .BOTH. , #176 ) ;
#176 = SURFACE_SIDE_STYLE ('',( #177 ) ) ;
#177 = SURFACE_STYLE_FILL_AREA ( #178 ) ;
#178 = FILL_AREA_STYLE ('',( #184 ) ) ;
#179 = COLOUR_RGB ( '',0.7529411764705882200, 0.7529411764705882200, 0.7529411764705882200 ) ;
#180 = DIRECTION ( 'NONE',  ( 0.0000000000000000000, 1.000000000000000000, 2.731847993664262700E-016 ) ) ;
#181 = DIRECTION ( 'NONE',  ( -0.0000000000000000000, 3.061616997868383100E-016, -1.000000000000000000 ) ) ;
#182 = CARTESIAN_POINT ( 'NONE',  ( 0.0000000000000000000, 5.752726595631025900E-016, 2.171820530704605000 ) ) ;
#183 = FACE_OUTER_BOUND ( 'NONE', #49, .T. ) ;
#184 = FILL_AREA_STYLE_COLOUR ( '', #179 ) ;
#185 =( GEOMETRIC_REPRESENTATION_CONTEXT ( 3 ) GLOBAL_UNCERTAINTY_ASSIGNED_CONTEXT ( ( #214 ) ) GLOBAL_UNIT_ASSIGNED_CONTEXT ( ( #201, #165, #213 ) ) REPRESENTATION_CONTEXT ( 'NONE', 'WORKASPACE' ) );
#186 = CONICAL_SURFACE ( 'NONE', #212, 6.350000000000000500, 0.7853981633974482800 ) ;
#187 =( NAMED_UNIT ( * ) PLANE_ANGLE_UNIT ( ) SI_UNIT ( $, .RADIAN. ) );
#188 =( LENGTH_UNIT ( ) NAMED_UNIT ( * ) SI_UNIT ( .MILLI., .METRE. ) );
#189 = MECHANICAL_DESIGN_GEOMETRIC_PRESENTATION_REPRESENTATION (  '', ( #191 ), #152 ) ;
#190 = PRESENTATION_LAYER_ASSIGNMENT (  '', '', ( #191 ) ) ;
#191 = STYLED_ITEM ( 'NONE', ( #192 ), #29 ) ;
#192 = PRESENTATION_STYLE_ASSIGNMENT (( #193 ) ) ;
#193 = SURFACE_STYLE_USAGE ( .BOTH. , #194 ) ;
#194 = SURFACE_SIDE_STYLE ('',( #195 ) ) ;
#195 = SURFACE_STYLE_FILL_AREA ( #196 ) ;
#196 = FILL_AREA_STYLE ('',( #202 ) ) ;
#197 = COLOUR_RGB ( '',0.7529411764705882200, 0.7529411764705882200, 0.7529411764705882200 ) ;
#198 = MECHANICAL_DESIGN_GEOMETRIC_PRESENTATION_REPRESENTATION (  '', ( #200 ), #185 ) ;
#199 = PRESENTATION_LAYER_ASSIGNMENT (  '', '', ( #200 ) ) ;
#200 = STYLED_ITEM ( 'NONE', ( #145 ), #27 ) ;
#201 =( LENGTH_UNIT ( ) NAMED_UNIT ( * ) SI_UNIT ( .MILLI., .METRE. ) );
#202 = FILL_AREA_STYLE_COLOUR ( '', #197 ) ;
#203 = DIRECTION ( 'NONE',  ( -1.224606353822377300E-016, 1.000000000000000000, 0.0000000000000000000 ) ) ;
#204 = DIRECTION ( 'NONE',  ( 1.000000000000000000, 1.224606353822377300E-016, 3.749275628560213600E-032 ) ) ;
#205 = CARTESIAN_POINT ( 'NONE',  ( 0.0000000000000000000, -2.752994890692719800E-016, 36.25000000000000700 ) ) ;
#206 = AXIS2_PLACEMENT_3D ( 'NONE', #205, #204, #203 ) ;
#207 = CIRCLE ( 'NONE', #206, 34.50000000000000000 ) ;
#208 = FACE_OUTER_BOUND ( 'NONE', #56, .T. ) ;
#209 = DIRECTION ( 'NONE',  ( 0.0000000000000000000, 1.000000000000000000, 2.731847993664262700E-016 ) ) ;
#210 = DIRECTION ( 'NONE',  ( -0.0000000000000000000, 3.061616997868383100E-016, -1.000000000000000000 ) ) ;
#211 = CARTESIAN_POINT ( 'NONE',  ( 0.0000000000000000000, 5.752726595631025900E-016, 2.171820530704605000 ) ) ;
#212 = AXIS2_PLACEMENT_3D ( 'NONE', #211, #210, #209 ) ;
#213 =( NAMED_UNIT ( * ) SI_UNIT ( $, .STERADIAN. ) SOLID_ANGLE_UNIT ( ) );
#214 = UNCERTAINTY_MEASURE_WITH_UNIT (LENGTH_MEASURE( 1.000000000000000100E-005 ), #201, 'distance_accuracy_value', 'NONE');
#215 = FILL_AREA_STYLE ('',( #216 ) ) ;
#216 = FILL_AREA_STYLE_COLOUR ( '', #217 ) ;
#217 = COLOUR_RGB ( '',0.7529411764705882200, 0.7529411764705882200, 0.7529411764705882200 ) ;
#218 = DIRECTION ( 'NONE',  ( 0.0000000000000000000, 1.000000000000000000, 3.143334444888611200E-016 ) ) ;
#219 = CIRCLE ( 'NONE', #285, 6.208578643762690400 ) ;
#220 = CARTESIAN_POINT ( 'NONE',  ( 7.776250346772096400E-016, -6.349999999999999600, 2.171820530704603200 ) ) ;
#221 = DIRECTION ( 'NONE',  ( -0.0000000000000000000, 3.061616997868383100E-016, -1.000000000000000000 ) ) ;
#222 = VECTOR ( 'NONE', #221, 1000.000000000000000 ) ;
#223 = MECHANICAL_DESIGN_GEOMETRIC_PRESENTATION_REPRESENTATION (  '', ( #225 ), #274 ) ;
#224 = PRESENTATION_LAYER_ASSIGNMENT (  '', '', ( #225 ) ) ;
#225 = STYLED_ITEM ( 'NONE', ( #226 ), #42 ) ;
#226 = PRESENTATION_STYLE_ASSIGNMENT (( #227 ) ) ;
#227 = SURFACE_STYLE_USAGE ( .BOTH. , #229 ) ;
#228 = CARTESIAN_POINT ( 'NONE',  ( 7.603064855357719100E-016, -6.208578643762688600, 2.313241886941911600 ) ) ;
#229 = SURFACE_SIDE_STYLE ('',( #230 ) ) ;
#230 = SURFACE_STYLE_FILL_AREA ( #231 ) ;
#231 = FILL_AREA_STYLE ('',( #232 ) ) ;
#232 = FILL_AREA_STYLE_COLOUR ( '', #288 ) ;
#233 = PRESENTATION_LAYER_ASSIGNMENT (  '', '', ( #234 ) ) ;
#234 = STYLED_ITEM ( 'NONE', ( #235 ), #65 ) ;
#235 = PRESENTATION_STYLE_ASSIGNMENT (( #236 ) ) ;
#236 = SURFACE_STYLE_USAGE ( .BOTH. , #237 ) ;
#237 = SURFACE_SIDE_STYLE ('',( #238 ) ) ;
#238 = SURFACE_STYLE_FILL_AREA ( #239 ) ;
#239 = FILL_AREA_STYLE ('',( #240 ) ) ;
#240 = FILL_AREA_STYLE_COLOUR ( '', #241 ) ;
#241 = COLOUR_RGB ( '',0.7529411764705882200, 0.7529411764705882200, 0.7529411764705882200 ) ;
#242 = FACE_OUTER_BOUND ( 'NONE', #59, .T. ) ;
#243 = CARTESIAN_POINT ( 'NONE',  ( 0.0000000000000000000, 6.208578643762699300, 2.313241886941913400 ) ) ;
#244 = DIRECTION ( 'NONE',  ( 0.0000000000000000000, 1.000000000000000000, 2.731847993664262700E-016 ) ) ;
#245 = DIRECTION ( 'NONE',  ( -0.0000000000000000000, 3.061616997868383100E-016, -1.000000000000000000 ) ) ;
#246 = CARTESIAN_POINT ( 'NONE',  ( 0.0000000000000000000, 5.752726595631025900E-016, 2.171820530704605000 ) ) ;
#247 = AXIS2_PLACEMENT_3D ( 'NONE', #246, #245, #244 ) ;
#248 = DIRECTION ( 'NONE',  ( 0.0000000000000000000, 1.000000000000000000, 4.022547190670856700E-016 ) ) ;
#249 = DIRECTION ( 'NONE',  ( 1.000000000000000000, 0.0000000000000000000, -0.0000000000000000000 ) ) ;
#250 = AXIS2_PLACEMENT_3D ( 'NONE', #299, #249, #248 ) ;
#251 = CIRCLE ( 'NONE', #247, 6.350000000000000500 ) ;
#252 = UNCERTAINTY_MEASURE_WITH_UNIT (LENGTH_MEASURE( 1.000000000000000100E-005 ), #256, 'distance_accuracy_value', 'NONE');
#253 =( LENGTH_UNIT ( ) NAMED_UNIT ( * ) SI_UNIT ( .MILLI., .METRE. ) );
#254 =( NAMED_UNIT ( * ) PLANE_ANGLE_UNIT ( ) SI_UNIT ( $, .RADIAN. ) );
#255 =( NAMED_UNIT ( * ) PLANE_ANGLE_UNIT ( ) SI_UNIT ( $, .RADIAN. ) );
#256 =( LENGTH_UNIT ( ) NAMED_UNIT ( * ) SI_UNIT ( .MILLI., .METRE. ) );
#257 = MECHANICAL_DESIGN_GEOMETRIC_PRESENTATION_REPRESENTATION (  '', ( #302 ), #309 ) ;
#258 = PRESENTATION_LAYER_ASSIGNMENT (  '', '', ( #302 ) ) ;
#259 =( NAMED_UNIT ( * ) SI_UNIT ( $, .STERADIAN. ) SOLID_ANGLE_UNIT ( ) );
#260 = CARTESIAN_POINT ( 'NONE',  ( 7.776250346772095400E-016, -6.349999999999997900, -1.750000000000002000 ) ) ;
#261 = LINE ( 'NONE', #260, #222 ) ;
#262 = VECTOR ( 'NONE', #314, 999.9999999999998900 ) ;
#263 =( LENGTH_UNIT ( ) NAMED_UNIT ( * ) SI_UNIT ( .MILLI., .METRE. ) );
#264 = MECHANICAL_DESIGN_GEOMETRIC_PRESENTATION_REPRESENTATION (  '', ( #266 ), #301 ) ;
#265 = PRESENTATION_LAYER_ASSIGNMENT (  '', '', ( #266 ) ) ;
#266 = STYLED_ITEM ( 'NONE', ( #267 ), #60 ) ;
#267 = PRESENTATION_STYLE_ASSIGNMENT (( #268 ) ) ;
#268 = SURFACE_STYLE_USAGE ( .BOTH. , #269 ) ;
#269 = SURFACE_SIDE_STYLE ('',( #270 ) ) ;
#270 = SURFACE_STYLE_FILL_AREA ( #271 ) ;
#271 = FILL_AREA_STYLE ('',( #281 ) ) ;
#272 = COLOUR_RGB ( '',0.7529411764705882200, 0.7529411764705882200, 0.7529411764705882200 ) ;
#273 = CONICAL_SURFACE ( 'NONE', #324, 6.208578643762689500, 0.7853981633974490600 ) ;
#274 =( GEOMETRIC_REPRESENTATION_CONTEXT ( 3 ) GLOBAL_UNCERTAINTY_ASSIGNED_CONTEXT ( ( #252 ) ) GLOBAL_UNIT_ASSIGNED_CONTEXT ( ( #256, #255, #259 ) ) REPRESENTATION_CONTEXT ( 'NONE', 'WORKASPACE' ) );
#275 = DIRECTION ( 'NONE',  ( 0.0000000000000000000, 1.000000000000000000, 2.731847993664262700E-016 ) ) ;
#276 = FACE_OUTER_BOUND ( 'NONE', #20, .T. ) ;
#277 = DIRECTION ( 'NONE',  ( 0.0000000000000000000, 0.7071067811865477900, -0.7071067811865473500 ) ) ;
#278 = VECTOR ( 'NONE', #277, 999.9999999999998900 ) ;
#279 = CARTESIAN_POINT ( 'NONE',  ( 0.0000000000000000000, 6.350000000000001400, 2.171820530704606800 ) ) ;
#280 = LINE ( 'NONE', #279, #278 ) ;
#281 = FILL_AREA_STYLE_COLOUR ( '', #272 ) ;
#282 = DIRECTION ( 'NONE',  ( 0.0000000000000000000, 1.000000000000000000, 2.794075062123209400E-016 ) ) ;
#283 = DIRECTION ( 'NONE',  ( -0.0000000000000000000, 3.061616997868383100E-016, -1.000000000000000000 ) ) ;
#284 = CARTESIAN_POINT ( 'NONE',  ( 0.0000000000000000000, 5.319748567513275700E-016, 2.313241886941915600 ) ) ;
#285 = AXIS2_PLACEMENT_3D ( 'NONE', #284, #283, #282 ) ;
#286 = DIRECTION ( 'NONE',  ( 0.0000000000000000000, -1.000000000000000000, -3.143334444888611200E-016 ) ) ;
#287 = DIRECTION ( 'NONE',  ( 0.0000000000000000000, -3.061616997868383100E-016, 1.000000000000000000 ) ) ;
#288 = COLOUR_RGB ( '',0.7529411764705882200, 0.7529411764705882200, 0.7529411764705882200 ) ;
#289 = FACE_OUTER_BOUND ( 'NONE', #36, .T. ) ;
#290 = AXIS2_PLACEMENT_3D ( 'NONE', #311, #292, #275 ) ;
#291 = FACE_OUTER_BOUND ( 'NONE', #10, .T. ) ;
#292 = DIRECTION ( 'NONE',  ( -0.0000000000000000000, 3.061616997868383100E-016, -1.000000000000000000 ) ) ;
#293 = CIRCLE ( 'NONE', #290, 6.350000000000000500 ) ;
#294 = SURFACE_SIDE_STYLE ('',( #295 ) ) ;
#295 = SURFACE_STYLE_FILL_AREA ( #325 ) ;
#296 = UNCERTAINTY_MEASURE_WITH_UNIT (LENGTH_MEASURE( 1.000000000000000100E-005 ), #263, 'distance_accuracy_value', 'NONE');
#297 =( NAMED_UNIT ( * ) SI_UNIT ( $, .STERADIAN. ) SOLID_ANGLE_UNIT ( ) );
#298 =( NAMED_UNIT ( * ) PLANE_ANGLE_UNIT ( ) SI_UNIT ( $, .RADIAN. ) );
#299 = CARTESIAN_POINT ( 'NONE',  ( 0.0000000000000000000, -2.752994890692719800E-016, 36.25000000000000700 ) ) ;
#300 = SPHERICAL_SURFACE ( 'NONE', #250, 34.50000000000000000 ) ;
#301 =( GEOMETRIC_REPRESENTATION_CONTEXT ( 3 ) GLOBAL_UNCERTAINTY_ASSIGNED_CONTEXT ( ( #296 ) ) GLOBAL_UNIT_ASSIGNED_CONTEXT ( ( #263, #298, #297 ) ) REPRESENTATION_CONTEXT ( 'NONE', 'WORKASPACE' ) );
#302 = STYLED_ITEM ( 'NONE', ( #303 ), #34 ) ;
#303 = PRESENTATION_STYLE_ASSIGNMENT (( #304 ) ) ;
#304 = SURFACE_STYLE_USAGE ( .BOTH. , #294 ) ;
#305 =( NAMED_UNIT ( * ) SI_UNIT ( $, .STERADIAN. ) SOLID_ANGLE_UNIT ( ) );
#306 = FILL_AREA_STYLE_COLOUR ( '', #310 ) ;
#307 = CARTESIAN_POINT ( 'NONE',  ( 0.0000000000000000000, 1.775983899502545100E-015, -1.750000000000000900 ) ) ;
#308 = AXIS2_PLACEMENT_3D ( 'NONE', #307, #287, #286 ) ;
#309 =( GEOMETRIC_REPRESENTATION_CONTEXT ( 3 ) GLOBAL_UNCERTAINTY_ASSIGNED_CONTEXT ( ( #312 ) ) GLOBAL_UNIT_ASSIGNED_CONTEXT ( ( #253, #254, #305 ) ) REPRESENTATION_CONTEXT ( 'NONE', 'WORKASPACE' ) );
#310 = COLOUR_RGB ( '',0.7529411764705882200, 0.7529411764705882200, 0.7529411764705882200 ) ;
#311 = CARTESIAN_POINT ( 'NONE',  ( 0.0000000000000000000, 5.752726595631025900E-016, 2.171820530704605000 ) ) ;
#312 = UNCERTAINTY_MEASURE_WITH_UNIT (LENGTH_MEASURE( 1.000000000000000100E-005 ), #253, 'distance_accuracy_value', 'NONE');
#313 = CARTESIAN_POINT ( 'NONE',  ( 0.0000000000000000000, 6.350000000000001400, 2.171820530704606800 ) ) ;
#314 = DIRECTION ( 'NONE',  ( 0.0000000000000000000, -0.7071067811865483500, 0.7071067811865468000 ) ) ;
#315 = CARTESIAN_POINT ( 'NONE',  ( 0.0000000000000000000, -6.208578643762687800, -1.750000000000002900 ) ) ;
#316 = LINE ( 'NONE', #315, #262 ) ;
#317 = DIRECTION ( 'NONE',  ( 8.659274570719355400E-017, -0.7071067811865472400, -0.7071067811865479100 ) ) ;
#318 = VECTOR ( 'NONE', #317, 999.9999999999998900 ) ;
#319 = CARTESIAN_POINT ( 'NONE',  ( 7.776250346772096400E-016, -6.349999999999999600, 2.171820530704603200 ) ) ;
#320 = LINE ( 'NONE', #319, #318 ) ;
#321 = DIRECTION ( 'NONE',  ( 0.0000000000000000000, -1.000000000000000000, -3.143334444888611200E-016 ) ) ;
#322 = DIRECTION ( 'NONE',  ( 0.0000000000000000000, -3.061616997868383100E-016, 1.000000000000000000 ) ) ;
#323 = CARTESIAN_POINT ( 'NONE',  ( 0.0000000000000000000, 1.775983899502545100E-015, -1.750000000000000900 ) ) ;
#324 = AXIS2_PLACEMENT_3D ( 'NONE', #323, #322, #321 ) ;
#325 = FILL_AREA_STYLE ('',( #306 ) ) ;
#326 = CONICAL_SURFACE ( 'NONE', #308, 6.208578643762689500, 0.7853981633974490600 ) ;
#327 =( NAMED_UNIT ( * ) PLANE_ANGLE_UNIT ( ) SI_UNIT ( $, .RADIAN. ) );
#328 = UNCERTAINTY_MEASURE_WITH_UNIT (LENGTH_MEASURE( 1.000000000000000100E-005 ), #159, 'distance_accuracy_value', 'NONE');
#329 =( NAMED_UNIT ( * ) SI_UNIT ( $, .STERADIAN. ) SOLID_ANGLE_UNIT ( ) );
#330 = SPHERICAL_SURFACE ( 'NONE', #331, 34.50000000000000000 ) ;
#331 = AXIS2_PLACEMENT_3D ( 'NONE', #337, #336, #333 ) ;
#332 =( GEOMETRIC_REPRESENTATION_CONTEXT ( 3 ) GLOBAL_UNCERTAINTY_ASSIGNED_CONTEXT ( ( #328 ) ) GLOBAL_UNIT_ASSIGNED_CONTEXT ( ( #159, #327, #329 ) ) REPRESENTATION_CONTEXT ( 'NONE', 'WORKASPACE' ) );
#333 = DIRECTION ( 'NONE',  ( 0.0000000000000000000, 1.000000000000000000, 4.022547190670856700E-016 ) ) ;
#334 = UNCERTAINTY_MEASURE_WITH_UNIT (LENGTH_MEASURE( 1.000000000000000100E-005 ), #53, 'distance_accuracy_value', 'NONE');
#335 =( NAMED_UNIT ( * ) SI_UNIT ( $, .STERADIAN. ) SOLID_ANGLE_UNIT ( ) );
#336 = DIRECTION ( 'NONE',  ( 1.000000000000000000, 0.0000000000000000000, -0.0000000000000000000 ) ) ;
#337 = CARTESIAN_POINT ( 'NONE',  ( 0.0000000000000000000, -2.752994890692719800E-016, 36.25000000000000700 ) ) ;
#338 = FILL_AREA_STYLE ('',( #349 ) ) ;
#339 = COLOUR_RGB ( '',0.7529411764705882200, 0.7529411764705882200, 0.7529411764705882200 ) ;
#340 = UNCERTAINTY_MEASURE_WITH_UNIT (LENGTH_MEASURE( 1.000000000000000100E-005 ), #348, 'distance_accuracy_value', 'NONE');
#341 =( NAMED_UNIT ( * ) SI_UNIT ( $, .STERADIAN. ) SOLID_ANGLE_UNIT ( ) );
#342 =( NAMED_UNIT ( * ) PLANE_ANGLE_UNIT ( ) SI_UNIT ( $, .RADIAN. ) );
#343 = STYLED_ITEM ( 'NONE', ( #344 ), #73 ) ;
#344 = PRESENTATION_STYLE_ASSIGNMENT (( #345 ) ) ;
#345 = SURFACE_STYLE_USAGE ( .BOTH. , #346 ) ;
#346 = SURFACE_SIDE_STYLE ('',( #347 ) ) ;
#347 = SURFACE_STYLE_FILL_AREA ( #338 ) ;
#348 =( LENGTH_UNIT ( ) NAMED_UNIT ( * ) SI_UNIT ( .MILLI., .METRE. ) );
#349 = FILL_AREA_STYLE_COLOUR ( '', #339 ) ;
#350 = PLANE ( 'NONE',  #362 ) ;
#351 =( GEOMETRIC_REPRESENTATION_CONTEXT ( 3 ) GLOBAL_UNCERTAINTY_ASSIGNED_CONTEXT ( ( #340 ) ) GLOBAL_UNIT_ASSIGNED_CONTEXT ( ( #348, #342, #341 ) ) REPRESENTATION_CONTEXT ( 'NONE', 'WORKASPACE' ) );
#352 = MECHANICAL_DESIGN_GEOMETRIC_PRESENTATION_REPRESENTATION (  '', ( #343 ), #351 ) ;
#353 = PRESENTATION_LAYER_ASSIGNMENT (  '', '', ( #343 ) ) ;
#354 = FACE_OUTER_BOUND ( 'NONE', #126, .T. ) ;
#355 = DIRECTION ( 'NONE',  ( -0.0000000000000000000, 3.061616997868383100E-016, -1.000000000000000000 ) ) ;
#356 = VECTOR ( 'NONE', #355, 1000.000000000000000 ) ;
#357 = CARTESIAN_POINT ( 'NONE',  ( 0.0000000000000000000, 6.350000000000001400, -1.749999999999998000 ) ) ;
#358 = LINE ( 'NONE', #357, #356 ) ;
#359 = DIRECTION ( 'NONE',  ( 0.0000000000000000000, 1.000000000000000000, 3.061616997868383100E-016 ) ) ;
#360 = DIRECTION ( 'NONE',  ( -0.0000000000000000000, 3.061616997868383100E-016, -1.000000000000000000 ) ) ;
#361 = CARTESIAN_POINT ( 'NONE',  ( 0.0000000000000000000, 1.775983899502544700E-015, -1.750000000000000200 ) ) ;
#362 = AXIS2_PLACEMENT_3D ( 'NONE', #361, #360, #359 ) ;
#363 = DIRECTION ( 'NONE',  ( 0.0000000000000000000, 1.000000000000000000, 2.794075062123209400E-016 ) ) ;
#364 = DIRECTION ( 'NONE',  ( -0.0000000000000000000, 3.061616997868383100E-016, -1.000000000000000000 ) ) ;
#365 = AXIS2_PLACEMENT_3D ( 'NONE', #368, #364, #363 ) ;
#366 = CIRCLE ( 'NONE', #365, 6.208578643762690400 ) ;
#367 = CARTESIAN_POINT ( 'NONE',  ( 0.0000000000000000000, 1.239972511392025100E-014, 1.750000000000001600 ) ) ;
#368 = CARTESIAN_POINT ( 'NONE',  ( 0.0000000000000000000, 5.319748567513275700E-016, 2.313241886941915600 ) ) ;
#369 =( GEOMETRIC_REPRESENTATION_CONTEXT ( 3 ) GLOBAL_UNCERTAINTY_ASSIGNED_CONTEXT ( ( #334 ) ) GLOBAL_UNIT_ASSIGNED_CONTEXT ( ( #53, #67, #335 ) ) REPRESENTATION_CONTEXT ( 'NONE', 'WORKASPACE' ) );
#370 = DIRECTION ( 'NONE',  ( 1.000000000000000000, 0.0000000000000000000, 0.0000000000000000000 ) ) ;
#371 = DIRECTION ( 'NONE',  ( 0.0000000000000000000, 0.0000000000000000000, 1.000000000000000000 ) ) ;
#372 =( GEOMETRIC_REPRESENTATION_CONTEXT ( 3 ) GLOBAL_UNCERTAINTY_ASSIGNED_CONTEXT ( ( #380 ) ) GLOBAL_UNIT_ASSIGNED_CONTEXT ( ( #395, #379, #396 ) ) REPRESENTATION_CONTEXT ( 'NONE', 'WORKASPACE' ) );
#373 = CARTESIAN_POINT ( 'NONE',  ( 0.0000000000000000000, 0.0000000000000000000, 0.0000000000000000000 ) ) ;
#374 = PRESENTATION_STYLE_ASSIGNMENT (( #375 ) ) ;
#375 = SURFACE_STYLE_USAGE ( .BOTH. , #376 ) ;
#376 = SURFACE_SIDE_STYLE ('',( #399 ) ) ;
#377 = PRODUCT_RELATED_PRODUCT_CATEGORY ( 'part', '', ( #392 ) ) ;
#378 = PRODUCT_DEFINITION_FORMATION_WITH_SPECIFIED_SOURCE ( 'ANY', '', #392, .NOT_KNOWN. ) ;
#379 =( NAMED_UNIT ( * ) PLANE_ANGLE_UNIT ( ) SI_UNIT ( $, .RADIAN. ) );
#380 = UNCERTAINTY_MEASURE_WITH_UNIT (LENGTH_MEASURE( 1.000000000000000100E-005 ), #395, 'distance_accuracy_value', 'NONE');
#381 = APPLICATION_CONTEXT ( 'automotive_design' ) ;
#382 = SHAPE_DEFINITION_REPRESENTATION ( #387, #383 ) ;
#383 = ADVANCED_BREP_SHAPE_REPRESENTATION ( '3498-E0W', ( #11, #398 ), #369 ) ;
#384 = MECHANICAL_DESIGN_GEOMETRIC_PRESENTATION_REPRESENTATION (  '', ( #386 ), #372 ) ;
#385 = PRESENTATION_LAYER_ASSIGNMENT (  '', '', ( #386 ) ) ;
#386 = STYLED_ITEM ( 'NONE', ( #374 ), #383 ) ;
#387 = PRODUCT_DEFINITION_SHAPE ( 'NONE', 'NONE',  #388 ) ;
#388 = PRODUCT_DEFINITION ( 'UNKNOWN', '', #378, #389 ) ;
#389 = PRODUCT_DEFINITION_CONTEXT ( 'detailed design', #391, 'design' ) ;
#390 = APPLICATION_PROTOCOL_DEFINITION ( 'draft international standard', 'automotive_design', 1998, #391 ) ;
#391 = APPLICATION_CONTEXT ( 'automotive_design' ) ;
#392 = PRODUCT ( '3498-E0W', '3498-E0W', '', ( #393 ) ) ;
#393 = PRODUCT_CONTEXT ( 'NONE', #381, 'mechanical' ) ;
#394 = APPLICATION_PROTOCOL_DEFINITION ( 'draft international standard', 'automotive_design', 1998, #381 ) ;
#395 =( LENGTH_UNIT ( ) NAMED_UNIT ( * ) SI_UNIT ( .MILLI., .METRE. ) );
#396 =( NAMED_UNIT ( * ) SI_UNIT ( $, .STERADIAN. ) SOLID_ANGLE_UNIT ( ) );
#397 = FILL_AREA_STYLE_COLOUR ( '', #401 ) ;
#398 = AXIS2_PLACEMENT_3D ( 'NONE', #373, #371, #370 ) ;
#399 = SURFACE_STYLE_FILL_AREA ( #400 ) ;
#400 = FILL_AREA_STYLE ('',( #397 ) ) ;
#401 = COLOUR_RGB ( '',0.7960784313725489700, 0.8235294117647058400, 0.9372549019607843100 ) ;
ENDSEC;
END-ISO-10303-21;
