ISO-10303-21;
HEADER;
FILE_DESCRIPTION (( 'STEP AP203' ),
    '1' );
FILE_NAME ('Web Model 46101_48927.step',
    '2017-03-01T20:54:06',
    ( '' ),
    ( '' ),
    'SwSTEP 2.0',
    'SolidWorks 2016',
    '' );
FILE_SCHEMA (( 'CONFIG_CONTROL_DESIGN' ));
ENDSEC;

DATA;
#1 = LINE ( 'NONE', #48, #109 ) ;
#2 = DATE_TIME_ROLE ( 'creation_date' ) ;
#3 = APPROVAL_DATE_TIME ( #56, #17 ) ;
#4 = PRODUCT_DEFINITION_FORMATION_WITH_SPECIFIED_SOURCE ( 'ANY', '', #213, .NOT_KNOWN. ) ;
#5 = DIRECTION ( 'NONE',  ( -9.106159978880877400E-017, -1.000000000000000000, 0.0000000000000000000 ) ) ;
#6 = PLANE ( 'NONE',  #175 ) ;
#7 = CARTESIAN_POINT ( 'NONE',  ( -38.10000000000000100, 38.10000000000000100, 0.0000000000000000000 ) ) ;
#8 = ORIENTED_EDGE ( 'NONE', *, *, #61, .F. ) ;
#9 = ADVANCED_FACE ( 'NONE', ( #200 ), #126, .F. ) ;
#10 = EDGE_CURVE ( 'NONE', #152, #138, #1, .T. ) ;
#11 = ADVANCED_FACE ( 'NONE', ( #153 ), #134, .T. ) ;
#12 = APPROVAL_PERSON_ORGANIZATION ( #64, #17, #45 ) ;
#13 = APPROVAL_DATE_TIME ( #68, #148 ) ;
#14 = ORIENTED_EDGE ( 'NONE', *, *, #89, .T. ) ;
#15 = COORDINATED_UNIVERSAL_TIME_OFFSET ( 5, 0, .BEHIND. ) ;
#16 = DIRECTION ( 'NONE',  ( -2.731847993664263700E-016, 1.000000000000000000, 0.0000000000000000000 ) ) ;
#17 = APPROVAL ( #160, 'UNSPECIFIED' ) ;
#18 = APPROVAL_PERSON_ORGANIZATION ( #74, #148, #228 ) ;
#19 = EDGE_CURVE ( 'NONE', #47, #144, #146, .T. ) ;
#20 = VECTOR ( 'NONE', #65, 1000.000000000000000 ) ;
#21 = LOCAL_TIME ( 15, 54, 6.000000000000000000, #80 ) ;
#22 = CARTESIAN_POINT ( 'NONE',  ( -38.10000000000000100, 38.10000000000000100, 1.000000000000000000 ) ) ;
#23 = APPROVAL_STATUS ( 'not_yet_approved' ) ;
#24 = CARTESIAN_POINT ( 'NONE',  ( -38.09999999999998700, -38.10000000000000100, 1.000000000000000000 ) ) ;
#25 = DIRECTION ( 'NONE',  ( -9.106159978880879900E-017, 1.000000000000000000, -0.0000000000000000000 ) ) ;
#26 = DIRECTION ( 'NONE',  ( -0.0000000000000000000, -0.0000000000000000000, -1.000000000000000000 ) ) ;
#27 = VECTOR ( 'NONE', #66, 1000.000000000000000 ) ;
#28 = ORGANIZATION ( 'UNSPECIFIED', 'UNSPECIFIED', '' ) ;
#29 = ORIENTED_EDGE ( 'NONE', *, *, #77, .T. ) ;
#30 = CARTESIAN_POINT ( 'NONE',  ( 38.10000000000000100, 38.09999999999999400, 1.000000000000000000 ) ) ;
#31 = CC_DESIGN_APPROVAL ( #17, ( #4 ) ) ;
#32 = ORIENTED_EDGE ( 'NONE', *, *, #102, .T. ) ;
#33 = EDGE_CURVE ( 'NONE', #144, #180, #51, .T. ) ;
#34 = LINE ( 'NONE', #123, #227 ) ;
#35 = ORIENTED_EDGE ( 'NONE', *, *, #231, .F. ) ;
#36 = ORIENTED_EDGE ( 'NONE', *, *, #89, .F. ) ;
#37 = CARTESIAN_POINT ( 'NONE',  ( -38.09999999999998700, -38.10000000000000100, 1.000000000000000000 ) ) ;
#38 = APPROVAL_ROLE ( '' ) ;
#39 = VECTOR ( 'NONE', #216, 1000.000000000000000 ) ;
#40 = CC_DESIGN_PERSON_AND_ORGANIZATION_ASSIGNMENT ( #199, #182, ( #4 ) ) ;
#41 = CARTESIAN_POINT ( 'NONE',  ( 38.10000000000000100, 38.09999999999999400, 1.000000000000000000 ) ) ;
#42 = LINE ( 'NONE', #237, #141 ) ;
#43 = EDGE_CURVE ( 'NONE', #194, #47, #42, .T. ) ;
#44 = AXIS2_PLACEMENT_3D ( 'NONE', #30, #183, #161 ) ;
#45 = APPROVAL_ROLE ( '' ) ;
#46 = DIRECTION ( 'NONE',  ( 1.821231995776175700E-016, -1.000000000000000000, 0.0000000000000000000 ) ) ;
#47 = VERTEX_POINT ( 'NONE', #150 ) ;
#48 = CARTESIAN_POINT ( 'NONE',  ( -38.10000000000000100, 38.10000000000000100, 1.000000000000000000 ) ) ;
#49 = COORDINATED_UNIVERSAL_TIME_OFFSET ( 5, 0, .BEHIND. ) ;
#50 = EDGE_LOOP ( 'NONE', ( #201, #186, #60, #36 ) ) ;
#51 = LINE ( 'NONE', #143, #232 ) ;
#52 = DIRECTION ( 'NONE',  ( 1.000000000000000000, 0.0000000000000000000, 0.0000000000000000000 ) ) ;
#53 =( NAMED_UNIT ( * ) PLANE_ANGLE_UNIT ( ) SI_UNIT ( $, .RADIAN. ) );
#54 = DIRECTION ( 'NONE',  ( -9.106159978880879900E-017, 1.000000000000000000, -0.0000000000000000000 ) ) ;
#55 = DIRECTION ( 'NONE',  ( 1.000000000000000000, 0.0000000000000000000, 0.0000000000000000000 ) ) ;
#56 = DATE_AND_TIME ( #111, #155 ) ;
#57 = CC_DESIGN_PERSON_AND_ORGANIZATION_ASSIGNMENT ( #149, #70, ( #4 ) ) ;
#58 = DIRECTION ( 'NONE',  ( -0.0000000000000000000, 0.0000000000000000000, 1.000000000000000000 ) ) ;
#59 = ORIENTED_EDGE ( 'NONE', *, *, #220, .T. ) ;
#60 = ORIENTED_EDGE ( 'NONE', *, *, #43, .F. ) ;
#61 = EDGE_CURVE ( 'NONE', #82, #152, #101, .T. ) ;
#62 = PERSON_AND_ORGANIZATION_ROLE ( 'design_owner' ) ;
#63 = PERSON_AND_ORGANIZATION_ROLE ( 'creator' ) ;
#64 = PERSON_AND_ORGANIZATION ( #230, #28 ) ;
#65 = DIRECTION ( 'NONE',  ( -0.0000000000000000000, -0.0000000000000000000, -1.000000000000000000 ) ) ;
#66 = DIRECTION ( 'NONE',  ( 1.000000000000000000, 2.731847993664263700E-016, 0.0000000000000000000 ) ) ;
#67 = CARTESIAN_POINT ( 'NONE',  ( 0.0000000000000000000, 0.0000000000000000000, 0.0000000000000000000 ) ) ;
#68 = DATE_AND_TIME ( #117, #166 ) ;
#69 = CARTESIAN_POINT ( 'NONE',  ( -38.10000000000000100, 38.10000000000000100, 1.000000000000000000 ) ) ;
#70 = PERSON_AND_ORGANIZATION_ROLE ( 'design_supplier' ) ;
#71 = ADVANCED_FACE ( 'NONE', ( #185 ), #167, .F. ) ;
#72 = VECTOR ( 'NONE', #25, 1000.000000000000000 ) ;
#73 = PERSON_AND_ORGANIZATION ( #230, #28 ) ;
#74 = PERSON_AND_ORGANIZATION ( #230, #28 ) ;
#75 = SECURITY_CLASSIFICATION ( '', '', #197 ) ;
#76 = ADVANCED_FACE ( 'NONE', ( #192 ), #169, .F. ) ;
#77 = EDGE_CURVE ( 'NONE', #138, #180, #90, .T. ) ;
#78 = AXIS2_PLACEMENT_3D ( 'NONE', #202, #135, #55 ) ;
#79 = VECTOR ( 'NONE', #85, 1000.000000000000000 ) ;
#80 = COORDINATED_UNIVERSAL_TIME_OFFSET ( 5, 0, .BEHIND. ) ;
#81 = DIRECTION ( 'NONE',  ( 1.000000000000000000, 0.0000000000000000000, 0.0000000000000000000 ) ) ;
#82 = VERTEX_POINT ( 'NONE', #41 ) ;
#83 = FACE_OUTER_BOUND ( 'NONE', #100, .T. ) ;
#84 = SHAPE_DEFINITION_REPRESENTATION ( #119, #142 ) ;
#85 = DIRECTION ( 'NONE',  ( -0.0000000000000000000, -0.0000000000000000000, -1.000000000000000000 ) ) ;
#86 = CC_DESIGN_PERSON_AND_ORGANIZATION_ASSIGNMENT ( #104, #91, ( #75 ) ) ;
#87 = DIRECTION ( 'NONE',  ( -0.0000000000000000000, -0.0000000000000000000, -1.000000000000000000 ) ) ;
#88 = CARTESIAN_POINT ( 'NONE',  ( 38.10000000000000100, 38.09999999999999400, 1.000000000000000000 ) ) ;
#89 = EDGE_CURVE ( 'NONE', #180, #194, #222, .T. ) ;
#90 = LINE ( 'NONE', #158, #136 ) ;
#91 = PERSON_AND_ORGANIZATION_ROLE ( 'classification_officer' ) ;
#92 = DIRECTION ( 'NONE',  ( 1.821231995776175700E-016, -1.000000000000000000, 0.0000000000000000000 ) ) ;
#93 = ORIENTED_EDGE ( 'NONE', *, *, #209, .T. ) ;
#94 = LINE ( 'NONE', #88, #79 ) ;
#95 = EDGE_LOOP ( 'NONE', ( #172, #145, #151, #93 ) ) ;
#96 = CARTESIAN_POINT ( 'NONE',  ( 0.0000000000000000000, 0.0000000000000000000, 0.0000000000000000000 ) ) ;
#97 = DIRECTION ( 'NONE',  ( -1.000000000000000000, -2.731847993664263700E-016, 0.0000000000000000000 ) ) ;
#98 = ORIENTED_EDGE ( 'NONE', *, *, #102, .F. ) ;
#99 = ORIENTED_EDGE ( 'NONE', *, *, #10, .T. ) ;
#100 = EDGE_LOOP ( 'NONE', ( #219, #184, #8, #59 ) ) ;
#101 = LINE ( 'NONE', #171, #39 ) ;
#102 = EDGE_CURVE ( 'NONE', #223, #194, #34, .T. ) ;
#103 = AXIS2_PLACEMENT_3D ( 'NONE', #37, #16, #97 ) ;
#104 = PERSON_AND_ORGANIZATION ( #230, #28 ) ;
#105 = CARTESIAN_POINT ( 'NONE',  ( 38.10000000000000100, 38.09999999999999400, 1.000000000000000000 ) ) ;
#106 = PLANE ( 'NONE',  #147 ) ;
#107 = DIRECTION ( 'NONE',  ( -1.821231995776175500E-016, 1.000000000000000000, 0.0000000000000000000 ) ) ;
#108 = ORIENTED_EDGE ( 'NONE', *, *, #231, .T. ) ;
#109 = VECTOR ( 'NONE', #92, 1000.000000000000000 ) ;
#110 = APPROVAL_STATUS ( 'not_yet_approved' ) ;
#111 = CALENDAR_DATE ( 2017, 1, 3 ) ;
#112 = ORIENTED_EDGE ( 'NONE', *, *, #43, .T. ) ;
#113 = EDGE_CURVE ( 'NONE', #138, #223, #132, .T. ) ;
#114 = DESIGN_CONTEXT ( 'detailed design', #154, 'design' ) ;
#115 = DATE_AND_TIME ( #163, #205 ) ;
#116 = CARTESIAN_POINT ( 'NONE',  ( -38.09999999999998700, -38.10000000000000100, 0.0000000000000000000 ) ) ;
#117 = CALENDAR_DATE ( 2017, 1, 3 ) ;
#118 = LINE ( 'NONE', #105, #72 ) ;
#119 = PRODUCT_DEFINITION_SHAPE ( 'NONE', 'NONE',  #191 ) ;
#120 = APPROVAL_DATE_TIME ( #168, #198 ) ;
#121 = CARTESIAN_POINT ( 'NONE',  ( 38.10000000000000900, -38.09999999999998000, 0.0000000000000000000 ) ) ;
#122 = DATE_AND_TIME ( #170, #236 ) ;
#123 = CARTESIAN_POINT ( 'NONE',  ( 38.10000000000000900, -38.09999999999998000, 1.000000000000000000 ) ) ;
#124 = CLOSED_SHELL ( 'NONE', ( #130, #71, #9, #165, #11, #76 ) ) ;
#125 = AXIS2_PLACEMENT_3D ( 'NONE', #96, #58, #81 ) ;
#126 = PLANE ( 'NONE',  #44 ) ;
#127 = APPROVAL_PERSON_ORGANIZATION ( #176, #198, #38 ) ;
#128 = EDGE_LOOP ( 'NONE', ( #112, #173, #35, #32 ) ) ;
#129 = EDGE_LOOP ( 'NONE', ( #99, #131, #108, #233 ) ) ;
#130 = ADVANCED_FACE ( 'NONE', ( #174 ), #106, .F. ) ;
#131 = ORIENTED_EDGE ( 'NONE', *, *, #113, .T. ) ;
#132 = LINE ( 'NONE', #157, #27 ) ;
#133 =( LENGTH_UNIT ( ) NAMED_UNIT ( * ) SI_UNIT ( .MILLI., .METRE. ) );
#134 = PLANE ( 'NONE',  #78 ) ;
#135 = DIRECTION ( 'NONE',  ( -0.0000000000000000000, 0.0000000000000000000, 1.000000000000000000 ) ) ;
#136 = VECTOR ( 'NONE', #87, 1000.000000000000000 ) ;
#137 = CC_DESIGN_DATE_AND_TIME_ASSIGNMENT ( #122, #211, ( #75 ) ) ;
#138 = VERTEX_POINT ( 'NONE', #24 ) ;
#139 = EDGE_LOOP ( 'NONE', ( #14, #98, #210, #29 ) ) ;
#140 = CARTESIAN_POINT ( 'NONE',  ( -38.09999999999998700, -38.10000000000000100, 0.0000000000000000000 ) ) ;
#141 = VECTOR ( 'NONE', #54, 1000.000000000000000 ) ;
#142 = ADVANCED_BREP_SHAPE_REPRESENTATION ( 'Web Model 46101_48927', ( #221, #164 ), #159 ) ;
#143 = CARTESIAN_POINT ( 'NONE',  ( -38.10000000000000100, 38.10000000000000100, 0.0000000000000000000 ) ) ;
#144 = VERTEX_POINT ( 'NONE', #7 ) ;
#145 = ORIENTED_EDGE ( 'NONE', *, *, #77, .F. ) ;
#146 = LINE ( 'NONE', #218, #196 ) ;
#147 = AXIS2_PLACEMENT_3D ( 'NONE', #208, #226, #107 ) ;
#148 = APPROVAL ( #110, 'UNSPECIFIED' ) ;
#149 = PERSON_AND_ORGANIZATION ( #230, #28 ) ;
#150 = CARTESIAN_POINT ( 'NONE',  ( 38.10000000000000100, 38.09999999999999400, 0.0000000000000000000 ) ) ;
#151 = ORIENTED_EDGE ( 'NONE', *, *, #10, .F. ) ;
#152 = VERTEX_POINT ( 'NONE', #225 ) ;
#153 = FACE_OUTER_BOUND ( 'NONE', #129, .T. ) ;
#154 = APPLICATION_CONTEXT ( 'configuration controlled 3d designs of mechanical parts and assemblies' ) ;
#155 = LOCAL_TIME ( 15, 54, 6.000000000000000000, #203 ) ;
#156 = APPLICATION_PROTOCOL_DEFINITION ( 'international standard', 'config_control_design', 1994, #154 ) ;
#157 = CARTESIAN_POINT ( 'NONE',  ( -38.09999999999998700, -38.10000000000000100, 1.000000000000000000 ) ) ;
#158 = CARTESIAN_POINT ( 'NONE',  ( -38.09999999999998700, -38.10000000000000100, 1.000000000000000000 ) ) ;
#159 =( GEOMETRIC_REPRESENTATION_CONTEXT ( 3 ) GLOBAL_UNCERTAINTY_ASSIGNED_CONTEXT ( ( #204 ) ) GLOBAL_UNIT_ASSIGNED_CONTEXT ( ( #133, #53, #188 ) ) REPRESENTATION_CONTEXT ( 'NONE', 'WORKASPACE' ) );
#160 = APPROVAL_STATUS ( 'not_yet_approved' ) ;
#161 = DIRECTION ( 'NONE',  ( 9.106159978880881100E-017, -1.000000000000000000, 0.0000000000000000000 ) ) ;
#162 = CC_DESIGN_APPROVAL ( #148, ( #75 ) ) ;
#163 = CALENDAR_DATE ( 2017, 1, 3 ) ;
#164 = AXIS2_PLACEMENT_3D ( 'NONE', #67, #193, #52 ) ;
#165 = ADVANCED_FACE ( 'NONE', ( #83 ), #6, .F. ) ;
#166 = LOCAL_TIME ( 15, 54, 6.000000000000000000, #207 ) ;
#167 = PLANE ( 'NONE',  #103 ) ;
#168 = DATE_AND_TIME ( #212, #21 ) ;
#169 = PLANE ( 'NONE',  #125 ) ;
#170 = CALENDAR_DATE ( 2017, 1, 3 ) ;
#171 = CARTESIAN_POINT ( 'NONE',  ( -38.10000000000000100, 38.10000000000000100, 1.000000000000000000 ) ) ;
#172 = ORIENTED_EDGE ( 'NONE', *, *, #33, .T. ) ;
#173 = ORIENTED_EDGE ( 'NONE', *, *, #220, .F. ) ;
#174 = FACE_OUTER_BOUND ( 'NONE', #95, .T. ) ;
#175 = AXIS2_PLACEMENT_3D ( 'NONE', #22, #5, #179 ) ;
#176 = PERSON_AND_ORGANIZATION ( #230, #28 ) ;
#177 = CC_DESIGN_SECURITY_CLASSIFICATION ( #75, ( #4 ) ) ;
#178 = CC_DESIGN_PERSON_AND_ORGANIZATION_ASSIGNMENT ( #215, #62, ( #213 ) ) ;
#179 = DIRECTION ( 'NONE',  ( 1.000000000000000000, -9.106159978880877400E-017, 0.0000000000000000000 ) ) ;
#180 = VERTEX_POINT ( 'NONE', #140 ) ;
#181 = VECTOR ( 'NONE', #195, 1000.000000000000000 ) ;
#182 = PERSON_AND_ORGANIZATION_ROLE ( 'creator' ) ;
#183 = DIRECTION ( 'NONE',  ( -1.000000000000000000, -9.106159978880881100E-017, 0.0000000000000000000 ) ) ;
#184 = ORIENTED_EDGE ( 'NONE', *, *, #209, .F. ) ;
#185 = FACE_OUTER_BOUND ( 'NONE', #139, .T. ) ;
#186 = ORIENTED_EDGE ( 'NONE', *, *, #19, .F. ) ;
#187 = MECHANICAL_CONTEXT ( 'NONE', #189, 'mechanical' ) ;
#188 =( NAMED_UNIT ( * ) SI_UNIT ( $, .STERADIAN. ) SOLID_ANGLE_UNIT ( ) );
#189 = APPLICATION_CONTEXT ( 'configuration controlled 3d designs of mechanical parts and assemblies' ) ;
#190 = PRODUCT_RELATED_PRODUCT_CATEGORY ( 'detail', '', ( #213 ) ) ;
#191 = PRODUCT_DEFINITION ( 'UNKNOWN', '', #4, #114 ) ;
#192 = FACE_OUTER_BOUND ( 'NONE', #50, .T. ) ;
#193 = DIRECTION ( 'NONE',  ( 0.0000000000000000000, 0.0000000000000000000, 1.000000000000000000 ) ) ;
#194 = VERTEX_POINT ( 'NONE', #121 ) ;
#195 = DIRECTION ( 'NONE',  ( 1.000000000000000000, 2.731847993664263700E-016, 0.0000000000000000000 ) ) ;
#196 = VECTOR ( 'NONE', #235, 1000.000000000000000 ) ;
#197 = SECURITY_CLASSIFICATION_LEVEL ( 'unclassified' ) ;
#198 = APPROVAL ( #23, 'UNSPECIFIED' ) ;
#199 = PERSON_AND_ORGANIZATION ( #230, #28 ) ;
#200 = FACE_OUTER_BOUND ( 'NONE', #128, .T. ) ;
#201 = ORIENTED_EDGE ( 'NONE', *, *, #33, .F. ) ;
#202 = CARTESIAN_POINT ( 'NONE',  ( 0.0000000000000000000, 0.0000000000000000000, 1.000000000000000000 ) ) ;
#203 = COORDINATED_UNIVERSAL_TIME_OFFSET ( 5, 0, .BEHIND. ) ;
#204 = UNCERTAINTY_MEASURE_WITH_UNIT (LENGTH_MEASURE( 1.000000000000000100E-005 ), #133, 'distance_accuracy_value', 'NONE');
#205 = LOCAL_TIME ( 15, 54, 6.000000000000000000, #15 ) ;
#206 = CC_DESIGN_APPROVAL ( #198, ( #191 ) ) ;
#207 = COORDINATED_UNIVERSAL_TIME_OFFSET ( 5, 0, .BEHIND. ) ;
#208 = CARTESIAN_POINT ( 'NONE',  ( -38.10000000000000100, 38.10000000000000100, 1.000000000000000000 ) ) ;
#209 = EDGE_CURVE ( 'NONE', #152, #144, #214, .T. ) ;
#210 = ORIENTED_EDGE ( 'NONE', *, *, #113, .F. ) ;
#211 = DATE_TIME_ROLE ( 'classification_date' ) ;
#212 = CALENDAR_DATE ( 2017, 1, 3 ) ;
#213 = PRODUCT ( 'Web Model 46101_48927', 'Web Model 46101_48927', '', ( #187 ) ) ;
#214 = LINE ( 'NONE', #69, #20 ) ;
#215 = PERSON_AND_ORGANIZATION ( #230, #28 ) ;
#216 = DIRECTION ( 'NONE',  ( -1.000000000000000000, 9.106159978880878600E-017, -0.0000000000000000000 ) ) ;
#217 = CC_DESIGN_PERSON_AND_ORGANIZATION_ASSIGNMENT ( #73, #63, ( #191 ) ) ;
#218 = CARTESIAN_POINT ( 'NONE',  ( -38.10000000000000100, 38.10000000000000100, 0.0000000000000000000 ) ) ;
#219 = ORIENTED_EDGE ( 'NONE', *, *, #19, .T. ) ;
#220 = EDGE_CURVE ( 'NONE', #82, #47, #94, .T. ) ;
#221 = MANIFOLD_SOLID_BREP ( 'Boss-Extrude1', #124 ) ;
#222 = LINE ( 'NONE', #116, #181 ) ;
#223 = VERTEX_POINT ( 'NONE', #224 ) ;
#224 = CARTESIAN_POINT ( 'NONE',  ( 38.10000000000000900, -38.09999999999998000, 1.000000000000000000 ) ) ;
#225 = CARTESIAN_POINT ( 'NONE',  ( -38.10000000000000100, 38.10000000000000100, 1.000000000000000000 ) ) ;
#226 = DIRECTION ( 'NONE',  ( 1.000000000000000000, 1.821231995776175500E-016, -0.0000000000000000000 ) ) ;
#227 = VECTOR ( 'NONE', #26, 1000.000000000000000 ) ;
#228 = APPROVAL_ROLE ( '' ) ;
#229 = CC_DESIGN_DATE_AND_TIME_ASSIGNMENT ( #115, #2, ( #191 ) ) ;
#230 = PERSON ( 'UNSPECIFIED', 'UNSPECIFIED', 'UNSPECIFIED', ('UNSPECIFIED'), ('UNSPECIFIED'), ('UNSPECIFIED') ) ;
#231 = EDGE_CURVE ( 'NONE', #223, #82, #118, .T. ) ;
#232 = VECTOR ( 'NONE', #46, 1000.000000000000000 ) ;
#233 = ORIENTED_EDGE ( 'NONE', *, *, #61, .T. ) ;
#234 = APPLICATION_PROTOCOL_DEFINITION ( 'international standard', 'config_control_design', 1994, #189 ) ;
#235 = DIRECTION ( 'NONE',  ( -1.000000000000000000, 9.106159978880878600E-017, -0.0000000000000000000 ) ) ;
#236 = LOCAL_TIME ( 15, 54, 6.000000000000000000, #49 ) ;
#237 = CARTESIAN_POINT ( 'NONE',  ( 38.10000000000000100, 38.09999999999999400, 0.0000000000000000000 ) ) ;
ENDSEC;
END-ISO-10303-21;
