ISO-10303-21;
HEADER;
FILE_DESCRIPTION (( 'STEP AP214' ),
    '1' );
FILE_NAME ('21237.step',
    '2022-06-15T20:32:27',
    ( '' ),
    ( '' ),
    'SwSTEP 2.0',
    'SolidWorks 2021',
    '' );
FILE_SCHEMA (( 'AUTOMOTIVE_DESIGN' ));
ENDSEC;

DATA;
#1 = LINE ( 'NONE', #122, #106 ) ;
#2 = ORIENTED_EDGE ( 'NONE', *, *, #16, .F. ) ;
#3 = ADVANCED_FACE ( 'NONE', ( #189 ), #53, .F. ) ;
#4 = FACE_OUTER_BOUND ( 'NONE', #187, .T. ) ;
#5 = VECTOR ( 'NONE', #81, 1000.000000000000000 ) ;
#6 = EDGE_CURVE ( 'NONE', #60, #67, #72, .T. ) ;
#7 = SURFACE_STYLE_USAGE ( .BOTH. , #153 ) ;
#8 = AXIS2_PLACEMENT_3D ( 'NONE', #28, #75, #151 ) ;
#9 = VERTEX_POINT ( 'NONE', #51 ) ;
#10 = VERTEX_POINT ( 'NONE', #173 ) ;
#11 = PLANE ( 'NONE',  #165 ) ;
#12 = ORIENTED_EDGE ( 'NONE', *, *, #164, .F. ) ;
#13 = CARTESIAN_POINT ( 'NONE',  ( 101.6000000000000085, -127.0000000000000000, 1.100000000000000089 ) ) ;
#14 = SURFACE_SIDE_STYLE ('',( #185 ) ) ;
#15 = AXIS2_PLACEMENT_3D ( 'NONE', #168, #19, #91 ) ;
#16 = EDGE_CURVE ( 'NONE', #82, #60, #148, .T. ) ;
#17 = CARTESIAN_POINT ( 'NONE',  ( -101.5999999999999943, 127.0000000000000000, 1.100000000000000089 ) ) ;
#18 = CARTESIAN_POINT ( 'NONE',  ( 101.6000000000000085, 127.0000000000000000, 1.100000000000000089 ) ) ;
#19 = DIRECTION ( 'NONE',  ( 1.000000000000000000, 0.000000000000000000, -0.000000000000000000 ) ) ;
#20 = PRODUCT_DEFINITION_CONTEXT ( 'detailed design', #150, 'design' ) ;
#21 =( NAMED_UNIT ( * ) PLANE_ANGLE_UNIT ( ) SI_UNIT ( $, .RADIAN. ) );
#22 = ORIENTED_EDGE ( 'NONE', *, *, #155, .T. ) ;
#23 = ADVANCED_FACE ( 'NONE', ( #127 ), #69, .F. ) ;
#24 = VECTOR ( 'NONE', #200, 1000.000000000000000 ) ;
#25 =( GEOMETRIC_REPRESENTATION_CONTEXT ( 3 ) GLOBAL_UNCERTAINTY_ASSIGNED_CONTEXT ( ( #94 ) ) GLOBAL_UNIT_ASSIGNED_CONTEXT ( ( #84, #195, #135 ) ) REPRESENTATION_CONTEXT ( 'NONE', 'WORKASPACE' ) );
#26 = MANIFOLD_SOLID_BREP ( 'Boss-Extrude1', #137 ) ;
#27 = ADVANCED_FACE ( 'NONE', ( #101 ), #54, .F. ) ;
#28 = CARTESIAN_POINT ( 'NONE',  ( 0.000000000000000000, 0.000000000000000000, 0.000000000000000000 ) ) ;
#29 = FILL_AREA_STYLE_COLOUR ( '', #149 ) ;
#30 = VECTOR ( 'NONE', #142, 1000.000000000000000 ) ;
#31 = ORIENTED_EDGE ( 'NONE', *, *, #63, .F. ) ;
#32 = ORIENTED_EDGE ( 'NONE', *, *, #73, .T. ) ;
#33 = CARTESIAN_POINT ( 'NONE',  ( -101.5999999999999943, 127.0000000000000000, 1.100000000000000089 ) ) ;
#34 = PRODUCT_DEFINITION ( 'UNKNOWN', '', #47, #20 ) ;
#35 = DIRECTION ( 'NONE',  ( -1.000000000000000000, -0.000000000000000000, -0.000000000000000000 ) ) ;
#36 = ORIENTED_EDGE ( 'NONE', *, *, #111, .T. ) ;
#37 = CARTESIAN_POINT ( 'NONE',  ( 101.6000000000000085, 127.0000000000000000, 0.000000000000000000 ) ) ;
#38 = ORIENTED_EDGE ( 'NONE', *, *, #180, .T. ) ;
#39 = CARTESIAN_POINT ( 'NONE',  ( -101.5999999999999943, 127.0000000000000000, 0.000000000000000000 ) ) ;
#40 = DIRECTION ( 'NONE',  ( -0.000000000000000000, -0.000000000000000000, -1.000000000000000000 ) ) ;
#41 = CARTESIAN_POINT ( 'NONE',  ( 101.6000000000000085, 127.0000000000000000, 1.100000000000000089 ) ) ;
#42 = ADVANCED_FACE ( 'NONE', ( #4 ), #11, .T. ) ;
#43 = PRODUCT_DEFINITION_SHAPE ( 'NONE', 'NONE',  #34 ) ;
#44 = PRESENTATION_STYLE_ASSIGNMENT (( #7 ) ) ;
#45 = CARTESIAN_POINT ( 'NONE',  ( 101.6000000000000085, -127.0000000000000000, 0.000000000000000000 ) ) ;
#46 = PRESENTATION_LAYER_ASSIGNMENT (  '', '', ( #194 ) ) ;
#47 = PRODUCT_DEFINITION_FORMATION_WITH_SPECIFIED_SOURCE ( 'ANY', '', #102, .NOT_KNOWN. ) ;
#48 = ORIENTED_EDGE ( 'NONE', *, *, #178, .F. ) ;
#49 = CARTESIAN_POINT ( 'NONE',  ( -101.5999999999999943, -127.0000000000000000, 1.100000000000000089 ) ) ;
#50 = ORIENTED_EDGE ( 'NONE', *, *, #6, .F. ) ;
#51 = CARTESIAN_POINT ( 'NONE',  ( -101.5999999999999943, -127.0000000000000000, 0.000000000000000000 ) ) ;
#52 = CARTESIAN_POINT ( 'NONE',  ( -101.5999999999999943, -127.0000000000000000, 0.000000000000000000 ) ) ;
#53 = PLANE ( 'NONE',  #181 ) ;
#54 = PLANE ( 'NONE',  #113 ) ;
#55 = COLOUR_RGB ( '',0.7921568627450980005, 0.8196078431372548767, 0.9333333333333333481 ) ;
#56 =( GEOMETRIC_REPRESENTATION_CONTEXT ( 3 ) GLOBAL_UNCERTAINTY_ASSIGNED_CONTEXT ( ( #177 ) ) GLOBAL_UNIT_ASSIGNED_CONTEXT ( ( #162, #131, #179 ) ) REPRESENTATION_CONTEXT ( 'NONE', 'WORKASPACE' ) );
#57 = SURFACE_STYLE_FILL_AREA ( #85 ) ;
#58 = MECHANICAL_DESIGN_GEOMETRIC_PRESENTATION_REPRESENTATION (  '', ( #99 ), #25 ) ;
#59 = APPLICATION_PROTOCOL_DEFINITION ( 'draft international standard', 'automotive_design', 1998, #150 ) ;
#60 = VERTEX_POINT ( 'NONE', #147 ) ;
#61 = EDGE_LOOP ( 'NONE', ( #36, #12, #105, #108 ) ) ;
#62 = LINE ( 'NONE', #169, #24 ) ;
#63 = EDGE_CURVE ( 'NONE', #182, #82, #161, .T. ) ;
#64 = AXIS2_PLACEMENT_3D ( 'NONE', #33, #196, #156 ) ;
#65 = ORIENTED_EDGE ( 'NONE', *, *, #111, .F. ) ;
#66 = LINE ( 'NONE', #70, #83 ) ;
#67 = VERTEX_POINT ( 'NONE', #39 ) ;
#68 = FACE_OUTER_BOUND ( 'NONE', #86, .T. ) ;
#69 = PLANE ( 'NONE',  #15 ) ;
#70 = CARTESIAN_POINT ( 'NONE',  ( 101.6000000000000085, -127.0000000000000000, 1.100000000000000089 ) ) ;
#71 = ORIENTED_EDGE ( 'NONE', *, *, #146, .T. ) ;
#72 = LINE ( 'NONE', #176, #104 ) ;
#73 = EDGE_CURVE ( 'NONE', #10, #182, #129, .T. ) ;
#74 = ORIENTED_EDGE ( 'NONE', *, *, #184, .F. ) ;
#75 = DIRECTION ( 'NONE',  ( 0.000000000000000000, 0.000000000000000000, 1.000000000000000000 ) ) ;
#76 = DIRECTION ( 'NONE',  ( 0.000000000000000000, -1.000000000000000000, 0.000000000000000000 ) ) ;
#77 = DIRECTION ( 'NONE',  ( 0.000000000000000000, -0.000000000000000000, 1.000000000000000000 ) ) ;
#78 = CARTESIAN_POINT ( 'NONE',  ( -101.5999999999999943, 127.0000000000000000, 0.000000000000000000 ) ) ;
#79 = SURFACE_STYLE_USAGE ( .BOTH. , #14 ) ;
#80 = DIRECTION ( 'NONE',  ( -0.000000000000000000, 0.000000000000000000, 1.000000000000000000 ) ) ;
#81 = DIRECTION ( 'NONE',  ( 1.000000000000000000, 0.000000000000000000, 0.000000000000000000 ) ) ;
#82 = VERTEX_POINT ( 'NONE', #18 ) ;
#83 = VECTOR ( 'NONE', #201, 1000.000000000000000 ) ;
#84 =( LENGTH_UNIT ( ) NAMED_UNIT ( * ) SI_UNIT ( .MILLI., .METRE. ) );
#85 = FILL_AREA_STYLE ('',( #29 ) ) ;
#86 = EDGE_LOOP ( 'NONE', ( #160, #120, #170, #202 ) ) ;
#87 = LINE ( 'NONE', #78, #132 ) ;
#88 = FILL_AREA_STYLE_COLOUR ( '', #55 ) ;
#89 = DIRECTION ( 'NONE',  ( -0.000000000000000000, -0.000000000000000000, -1.000000000000000000 ) ) ;
#90 = VECTOR ( 'NONE', #76, 1000.000000000000000 ) ;
#91 = DIRECTION ( 'NONE',  ( -0.000000000000000000, 0.000000000000000000, -1.000000000000000000 ) ) ;
#92 = PLANE ( 'NONE',  #64 ) ;
#93 = PRESENTATION_STYLE_ASSIGNMENT (( #79 ) ) ;
#94 = UNCERTAINTY_MEASURE_WITH_UNIT (LENGTH_MEASURE( 1.000000000000000082E-05 ), #84, 'distance_accuracy_value', 'NONE');
#95 = CARTESIAN_POINT ( 'NONE',  ( -101.5999999999999943, -127.0000000000000000, 1.100000000000000089 ) ) ;
#96 = ORIENTED_EDGE ( 'NONE', *, *, #63, .T. ) ;
#97 = DIRECTION ( 'NONE',  ( 0.000000000000000000, 0.000000000000000000, 1.000000000000000000 ) ) ;
#98 = ADVANCED_FACE ( 'NONE', ( #138 ), #92, .F. ) ;
#99 = STYLED_ITEM ( 'NONE', ( #44 ), #133 ) ;
#100 = APPLICATION_CONTEXT ( 'automotive_design' ) ;
#101 = FACE_OUTER_BOUND ( 'NONE', #139, .T. ) ;
#102 = PRODUCT ( '21237', '21237', '', ( #152 ) ) ;
#103 = EDGE_CURVE ( 'NONE', #9, #114, #112, .T. ) ;
#104 = VECTOR ( 'NONE', #40, 1000.000000000000000 ) ;
#105 = ORIENTED_EDGE ( 'NONE', *, *, #155, .F. ) ;
#106 = VECTOR ( 'NONE', #89, 1000.000000000000000 ) ;
#107 = CARTESIAN_POINT ( 'NONE',  ( 101.6000000000000085, 127.0000000000000000, 1.100000000000000089 ) ) ;
#108 = ORIENTED_EDGE ( 'NONE', *, *, #6, .T. ) ;
#109 =( LENGTH_UNIT ( ) NAMED_UNIT ( * ) SI_UNIT ( .MILLI., .METRE. ) );
#110 = CARTESIAN_POINT ( 'NONE',  ( 0.000000000000000000, 0.000000000000000000, 0.000000000000000000 ) ) ;
#111 = EDGE_CURVE ( 'NONE', #67, #9, #87, .T. ) ;
#112 = LINE ( 'NONE', #52, #5 ) ;
#113 = AXIS2_PLACEMENT_3D ( 'NONE', #41, #117, #97 ) ;
#114 = VERTEX_POINT ( 'NONE', #45 ) ;
#115 = CARTESIAN_POINT ( 'NONE',  ( 101.6000000000000085, 127.0000000000000000, 1.100000000000000089 ) ) ;
#116 = DIRECTION ( 'NONE',  ( -0.000000000000000000, 0.000000000000000000, 1.000000000000000000 ) ) ;
#117 = DIRECTION ( 'NONE',  ( -1.000000000000000000, 0.000000000000000000, 0.000000000000000000 ) ) ;
#118 = APPLICATION_PROTOCOL_DEFINITION ( 'draft international standard', 'automotive_design', 1998, #100 ) ;
#119 =( GEOMETRIC_REPRESENTATION_CONTEXT ( 3 ) GLOBAL_UNCERTAINTY_ASSIGNED_CONTEXT ( ( #174 ) ) GLOBAL_UNIT_ASSIGNED_CONTEXT ( ( #109, #21, #166 ) ) REPRESENTATION_CONTEXT ( 'NONE', 'WORKASPACE' ) );
#120 = ORIENTED_EDGE ( 'NONE', *, *, #146, .F. ) ;
#121 = SHAPE_DEFINITION_REPRESENTATION ( #43, #133 ) ;
#122 = CARTESIAN_POINT ( 'NONE',  ( -101.5999999999999943, -127.0000000000000000, 1.100000000000000089 ) ) ;
#123 = ORIENTED_EDGE ( 'NONE', *, *, #184, .T. ) ;
#124 = DIRECTION ( 'NONE',  ( -0.000000000000000000, -0.000000000000000000, -1.000000000000000000 ) ) ;
#125 = PRESENTATION_LAYER_ASSIGNMENT (  '', '', ( #99 ) ) ;
#126 = CARTESIAN_POINT ( 'NONE',  ( -101.5999999999999943, 127.0000000000000000, 0.000000000000000000 ) ) ;
#127 = FACE_OUTER_BOUND ( 'NONE', #61, .T. ) ;
#128 = VERTEX_POINT ( 'NONE', #37 ) ;
#129 = LINE ( 'NONE', #49, #191 ) ;
#130 = EDGE_LOOP ( 'NONE', ( #136, #193, #65, #74 ) ) ;
#131 =( NAMED_UNIT ( * ) PLANE_ANGLE_UNIT ( ) SI_UNIT ( $, .RADIAN. ) );
#132 = VECTOR ( 'NONE', #171, 1000.000000000000000 ) ;
#133 = ADVANCED_BREP_SHAPE_REPRESENTATION ( '21237', ( #26, #8 ), #119 ) ;
#134 = AXIS2_PLACEMENT_3D ( 'NONE', #95, #158, #77 ) ;
#135 =( NAMED_UNIT ( * ) SI_UNIT ( $, .STERADIAN. ) SOLID_ANGLE_UNIT ( ) );
#136 = ORIENTED_EDGE ( 'NONE', *, *, #180, .F. ) ;
#137 = CLOSED_SHELL ( 'NONE', ( #27, #98, #23, #192, #42, #3 ) ) ;
#138 = FACE_OUTER_BOUND ( 'NONE', #145, .T. ) ;
#139 = EDGE_LOOP ( 'NONE', ( #38, #48, #31, #71 ) ) ;
#140 = DIRECTION ( 'NONE',  ( 1.000000000000000000, 0.000000000000000000, 0.000000000000000000 ) ) ;
#141 = PRODUCT_RELATED_PRODUCT_CATEGORY ( 'part', '', ( #102 ) ) ;
#142 = DIRECTION ( 'NONE',  ( -1.000000000000000000, -0.000000000000000000, -0.000000000000000000 ) ) ;
#143 = DIRECTION ( 'NONE',  ( 1.000000000000000000, 0.000000000000000000, 0.000000000000000000 ) ) ;
#144 = CARTESIAN_POINT ( 'NONE',  ( 0.000000000000000000, 0.000000000000000000, 1.100000000000000089 ) ) ;
#145 = EDGE_LOOP ( 'NONE', ( #123, #50, #2, #199 ) ) ;
#146 = EDGE_CURVE ( 'NONE', #182, #114, #66, .T. ) ;
#147 = CARTESIAN_POINT ( 'NONE',  ( -101.5999999999999943, 127.0000000000000000, 1.100000000000000089 ) ) ;
#148 = LINE ( 'NONE', #17, #30 ) ;
#149 = COLOUR_RGB ( '',0.7921568627450980005, 0.8196078431372548767, 0.9333333333333333481 ) ;
#150 = APPLICATION_CONTEXT ( 'automotive_design' ) ;
#151 = DIRECTION ( 'NONE',  ( 1.000000000000000000, 0.000000000000000000, 0.000000000000000000 ) ) ;
#152 = PRODUCT_CONTEXT ( 'NONE', #100, 'mechanical' ) ;
#153 = SURFACE_SIDE_STYLE ('',( #57 ) ) ;
#154 = DIRECTION ( 'NONE',  ( 1.000000000000000000, 0.000000000000000000, 0.000000000000000000 ) ) ;
#155 = EDGE_CURVE ( 'NONE', #60, #10, #186, .T. ) ;
#156 = DIRECTION ( 'NONE',  ( 0.000000000000000000, -0.000000000000000000, -1.000000000000000000 ) ) ;
#157 = FILL_AREA_STYLE ('',( #88 ) ) ;
#158 = DIRECTION ( 'NONE',  ( 0.000000000000000000, 1.000000000000000000, 0.000000000000000000 ) ) ;
#159 = VECTOR ( 'NONE', #35, 1000.000000000000000 ) ;
#160 = ORIENTED_EDGE ( 'NONE', *, *, #103, .T. ) ;
#161 = LINE ( 'NONE', #107, #190 ) ;
#162 =( LENGTH_UNIT ( ) NAMED_UNIT ( * ) SI_UNIT ( .MILLI., .METRE. ) );
#163 = MECHANICAL_DESIGN_GEOMETRIC_PRESENTATION_REPRESENTATION (  '', ( #194 ), #56 ) ;
#164 = EDGE_CURVE ( 'NONE', #10, #9, #1, .T. ) ;
#165 = AXIS2_PLACEMENT_3D ( 'NONE', #144, #80, #140 ) ;
#166 =( NAMED_UNIT ( * ) SI_UNIT ( $, .STERADIAN. ) SOLID_ANGLE_UNIT ( ) );
#167 = DIRECTION ( 'NONE',  ( -0.000000000000000000, 1.000000000000000000, -0.000000000000000000 ) ) ;
#168 = CARTESIAN_POINT ( 'NONE',  ( -101.5999999999999943, 127.0000000000000000, 1.100000000000000089 ) ) ;
#169 = CARTESIAN_POINT ( 'NONE',  ( 101.6000000000000085, 127.0000000000000000, 0.000000000000000000 ) ) ;
#170 = ORIENTED_EDGE ( 'NONE', *, *, #73, .F. ) ;
#171 = DIRECTION ( 'NONE',  ( 0.000000000000000000, -1.000000000000000000, 0.000000000000000000 ) ) ;
#172 = VECTOR ( 'NONE', #124, 1000.000000000000000 ) ;
#173 = CARTESIAN_POINT ( 'NONE',  ( -101.5999999999999943, -127.0000000000000000, 1.100000000000000089 ) ) ;
#174 = UNCERTAINTY_MEASURE_WITH_UNIT (LENGTH_MEASURE( 1.000000000000000082E-05 ), #109, 'distance_accuracy_value', 'NONE');
#175 = LINE ( 'NONE', #126, #159 ) ;
#176 = CARTESIAN_POINT ( 'NONE',  ( -101.5999999999999943, 127.0000000000000000, 1.100000000000000089 ) ) ;
#177 = UNCERTAINTY_MEASURE_WITH_UNIT (LENGTH_MEASURE( 1.000000000000000082E-05 ), #162, 'distance_accuracy_value', 'NONE');
#178 = EDGE_CURVE ( 'NONE', #82, #128, #183, .T. ) ;
#179 =( NAMED_UNIT ( * ) SI_UNIT ( $, .STERADIAN. ) SOLID_ANGLE_UNIT ( ) );
#180 = EDGE_CURVE ( 'NONE', #114, #128, #62, .T. ) ;
#181 = AXIS2_PLACEMENT_3D ( 'NONE', #110, #116, #143 ) ;
#182 = VERTEX_POINT ( 'NONE', #13 ) ;
#183 = LINE ( 'NONE', #115, #172 ) ;
#184 = EDGE_CURVE ( 'NONE', #128, #67, #175, .T. ) ;
#185 = SURFACE_STYLE_FILL_AREA ( #157 ) ;
#186 = LINE ( 'NONE', #188, #90 ) ;
#187 = EDGE_LOOP ( 'NONE', ( #96, #197, #22, #32 ) ) ;
#188 = CARTESIAN_POINT ( 'NONE',  ( -101.5999999999999943, 127.0000000000000000, 1.100000000000000089 ) ) ;
#189 = FACE_OUTER_BOUND ( 'NONE', #130, .T. ) ;
#190 = VECTOR ( 'NONE', #167, 1000.000000000000000 ) ;
#191 = VECTOR ( 'NONE', #154, 1000.000000000000000 ) ;
#192 = ADVANCED_FACE ( 'NONE', ( #68 ), #198, .F. ) ;
#193 = ORIENTED_EDGE ( 'NONE', *, *, #103, .F. ) ;
#194 = STYLED_ITEM ( 'NONE', ( #93 ), #26 ) ;
#195 =( NAMED_UNIT ( * ) PLANE_ANGLE_UNIT ( ) SI_UNIT ( $, .RADIAN. ) );
#196 = DIRECTION ( 'NONE',  ( 0.000000000000000000, -1.000000000000000000, 0.000000000000000000 ) ) ;
#197 = ORIENTED_EDGE ( 'NONE', *, *, #16, .T. ) ;
#198 = PLANE ( 'NONE',  #134 ) ;
#199 = ORIENTED_EDGE ( 'NONE', *, *, #178, .T. ) ;
#200 = DIRECTION ( 'NONE',  ( -0.000000000000000000, 1.000000000000000000, -0.000000000000000000 ) ) ;
#201 = DIRECTION ( 'NONE',  ( -0.000000000000000000, -0.000000000000000000, -1.000000000000000000 ) ) ;
#202 = ORIENTED_EDGE ( 'NONE', *, *, #164, .T. ) ;
ENDSEC;
END-ISO-10303-21;
