ISO-10303-21;
HEADER;
FILE_DESCRIPTION (( 'STEP AP203' ),
    '1' );
FILE_NAME ('Web Model 39402_39415.step',
    '2018-10-05T20:55:32',
    ( '' ),
    ( '' ),
    'SwSTEP 2.0',
    'SolidWorks 2016',
    '' );
FILE_SCHEMA (( 'CONFIG_CONTROL_DESIGN' ));
ENDSEC;

DATA;
#1 = EDGE_LOOP ( 'NONE', ( #96, #81 ) ) ;
#2 = COORDINATED_UNIVERSAL_TIME_OFFSET ( 5, 0, .BEHIND. ) ;
#3 = PRODUCT_RELATED_PRODUCT_CATEGORY ( 'detail', '', ( #44 ) ) ;
#4 = DIRECTION ( 'NONE',  ( 0.0000000000000000000, 0.0000000000000000000, 1.000000000000000000 ) ) ;
#5 = DATE_AND_TIME ( #141, #148 ) ;
#6 = CARTESIAN_POINT ( 'NONE',  ( 0.0000000000000000000, 0.0000000000000000000, -1.500000000000000000 ) ) ;
#7 = ORIENTED_EDGE ( 'NONE', *, *, #145, .T. ) ;
#8 = CC_DESIGN_SECURITY_CLASSIFICATION ( #138, ( #35 ) ) ;
#9 = FACE_OUTER_BOUND ( 'NONE', #40, .T. ) ;
#10 = ORIENTED_EDGE ( 'NONE', *, *, #126, .T. ) ;
#11 = APPROVAL_PERSON_ORGANIZATION ( #121, #105, #29 ) ;
#12 = PRODUCT_DEFINITION ( 'UNKNOWN', '', #35, #19 ) ;
#13 = DIRECTION ( 'NONE',  ( -1.000000000000000000, 0.0000000000000000000, 0.0000000000000000000 ) ) ;
#14 = VECTOR ( 'NONE', #147, 1000.000000000000000 ) ;
#15 = DIRECTION ( 'NONE',  ( -1.000000000000000000, 0.0000000000000000000, 0.0000000000000000000 ) ) ;
#16 = CARTESIAN_POINT ( 'NONE',  ( 25.39999999999999900, 3.110602869834276900E-015, -1.500000000000000000 ) ) ;
#17 = LINE ( 'NONE', #85, #14 ) ;
#18 = DATE_AND_TIME ( #30, #21 ) ;
#19 = DESIGN_CONTEXT ( 'detailed design', #77, 'design' ) ;
#20 = ADVANCED_FACE ( 'NONE', ( #34 ), #114, .F. ) ;
#21 = LOCAL_TIME ( 16, 55, 32.00000000000000000, #168 ) ;
#22 = AXIS2_PLACEMENT_3D ( 'NONE', #48, #66, #15 ) ;
#23 = FACE_OUTER_BOUND ( 'NONE', #152, .T. ) ;
#24 = CARTESIAN_POINT ( 'NONE',  ( 0.0000000000000000000, 0.0000000000000000000, 1.500000000000000000 ) ) ;
#25 = CALENDAR_DATE ( 2018, 5, 10 ) ;
#26 = APPLICATION_PROTOCOL_DEFINITION ( 'international standard', 'config_control_design', 1994, #99 ) ;
#27 = CARTESIAN_POINT ( 'NONE',  ( -25.39999999999999900, 0.0000000000000000000, -1.500000000000000000 ) ) ;
#28 = APPROVAL ( #134, 'UNSPECIFIED' ) ;
#29 = APPROVAL_ROLE ( '' ) ;
#30 = CALENDAR_DATE ( 2018, 5, 10 ) ;
#31 = ORIENTED_EDGE ( 'NONE', *, *, #39, .F. ) ;
#32 =( GEOMETRIC_REPRESENTATION_CONTEXT ( 3 ) GLOBAL_UNCERTAINTY_ASSIGNED_CONTEXT ( ( #111 ) ) GLOBAL_UNIT_ASSIGNED_CONTEXT ( ( #65, #162, #73 ) ) REPRESENTATION_CONTEXT ( 'NONE', 'WORKASPACE' ) );
#33 = APPROVAL_PERSON_ORGANIZATION ( #46, #28, #169 ) ;
#34 = FACE_OUTER_BOUND ( 'NONE', #1, .T. ) ;
#35 = PRODUCT_DEFINITION_FORMATION_WITH_SPECIFIED_SOURCE ( 'ANY', '', #44, .NOT_KNOWN. ) ;
#36 = CARTESIAN_POINT ( 'NONE',  ( 0.0000000000000000000, 0.0000000000000000000, 1.500000000000000000 ) ) ;
#37 = CARTESIAN_POINT ( 'NONE',  ( -25.39999999999999900, 0.0000000000000000000, 1.500000000000000000 ) ) ;
#38 = COORDINATED_UNIVERSAL_TIME_OFFSET ( 5, 0, .BEHIND. ) ;
#39 = EDGE_CURVE ( 'NONE', #124, #149, #17, .T. ) ;
#40 = EDGE_LOOP ( 'NONE', ( #10, #97 ) ) ;
#41 = DIRECTION ( 'NONE',  ( -0.0000000000000000000, -0.0000000000000000000, -1.000000000000000000 ) ) ;
#42 = ORIENTED_EDGE ( 'NONE', *, *, #125, .T. ) ;
#43 = SECURITY_CLASSIFICATION_LEVEL ( 'unclassified' ) ;
#44 = PRODUCT ( 'Web Model 39402_39415', 'Web Model 39402_39415', '', ( #55 ) ) ;
#45 = DATE_AND_TIME ( #25, #60 ) ;
#46 = PERSON_AND_ORGANIZATION ( #57, #74 ) ;
#47 = AXIS2_PLACEMENT_3D ( 'NONE', #6, #129, #63 ) ;
#48 = CARTESIAN_POINT ( 'NONE',  ( 0.0000000000000000000, 0.0000000000000000000, 1.500000000000000000 ) ) ;
#49 = DIRECTION ( 'NONE',  ( 1.000000000000000000, 0.0000000000000000000, -0.0000000000000000000 ) ) ;
#50 = CARTESIAN_POINT ( 'NONE',  ( 0.0000000000000000000, 0.0000000000000000000, -1.500000000000000000 ) ) ;
#51 = PERSON_AND_ORGANIZATION ( #57, #74 ) ;
#52 = PERSON_AND_ORGANIZATION ( #57, #74 ) ;
#53 = DIRECTION ( 'NONE',  ( 1.000000000000000000, 0.0000000000000000000, -0.0000000000000000000 ) ) ;
#54 = DIRECTION ( 'NONE',  ( 1.000000000000000000, 0.0000000000000000000, 0.0000000000000000000 ) ) ;
#55 = MECHANICAL_CONTEXT ( 'NONE', #99, 'mechanical' ) ;
#56 = CIRCLE ( 'NONE', #123, 25.39999999999999900 ) ;
#57 = PERSON ( 'UNSPECIFIED', 'UNSPECIFIED', 'UNSPECIFIED', ('UNSPECIFIED'), ('UNSPECIFIED'), ('UNSPECIFIED') ) ;
#58 = ADVANCED_FACE ( 'NONE', ( #93 ), #94, .T. ) ;
#59 = CC_DESIGN_APPROVAL ( #28, ( #12 ) ) ;
#60 = LOCAL_TIME ( 16, 55, 32.00000000000000000, #89 ) ;
#61 = CLOSED_SHELL ( 'NONE', ( #78, #58, #172, #20 ) ) ;
#62 = LOCAL_TIME ( 16, 55, 32.00000000000000000, #38 ) ;
#63 = DIRECTION ( 'NONE',  ( 1.000000000000000000, 0.0000000000000000000, 0.0000000000000000000 ) ) ;
#64 = CIRCLE ( 'NONE', #47, 25.39999999999999900 ) ;
#65 =( LENGTH_UNIT ( ) NAMED_UNIT ( * ) SI_UNIT ( .MILLI., .METRE. ) );
#66 = DIRECTION ( 'NONE',  ( -0.0000000000000000000, -0.0000000000000000000, -1.000000000000000000 ) ) ;
#67 = CC_DESIGN_PERSON_AND_ORGANIZATION_ASSIGNMENT ( #133, #153, ( #35 ) ) ;
#68 = DIRECTION ( 'NONE',  ( 1.000000000000000000, 0.0000000000000000000, 0.0000000000000000000 ) ) ;
#69 = APPLICATION_PROTOCOL_DEFINITION ( 'international standard', 'config_control_design', 1994, #77 ) ;
#70 = CC_DESIGN_PERSON_AND_ORGANIZATION_ASSIGNMENT ( #173, #88, ( #35 ) ) ;
#71 = APPROVAL_DATE_TIME ( #122, #105 ) ;
#72 = AXIS2_PLACEMENT_3D ( 'NONE', #146, #83, #53 ) ;
#73 =( NAMED_UNIT ( * ) SI_UNIT ( $, .STERADIAN. ) SOLID_ANGLE_UNIT ( ) );
#74 = ORGANIZATION ( 'UNSPECIFIED', 'UNSPECIFIED', '' ) ;
#75 = CARTESIAN_POINT ( 'NONE',  ( 0.0000000000000000000, 0.0000000000000000000, 1.500000000000000000 ) ) ;
#76 = APPROVAL_ROLE ( '' ) ;
#77 = APPLICATION_CONTEXT ( 'configuration controlled 3d designs of mechanical parts and assemblies' ) ;
#78 = ADVANCED_FACE ( 'NONE', ( #23 ), #80, .T. ) ;
#79 = APPROVAL_PERSON_ORGANIZATION ( #51, #91, #76 ) ;
#80 = CYLINDRICAL_SURFACE ( 'NONE', #82, 25.39999999999999900 ) ;
#81 = ORIENTED_EDGE ( 'NONE', *, *, #109, .F. ) ;
#82 = AXIS2_PLACEMENT_3D ( 'NONE', #36, #144, #13 ) ;
#83 = DIRECTION ( 'NONE',  ( 0.0000000000000000000, 0.0000000000000000000, 1.000000000000000000 ) ) ;
#84 = PERSON_AND_ORGANIZATION ( #57, #74 ) ;
#85 = CARTESIAN_POINT ( 'NONE',  ( -25.39999999999999900, 0.0000000000000000000, 1.500000000000000000 ) ) ;
#86 = CARTESIAN_POINT ( 'NONE',  ( 0.0000000000000000000, 0.0000000000000000000, 1.500000000000000000 ) ) ;
#87 = ORIENTED_EDGE ( 'NONE', *, *, #145, .F. ) ;
#88 = PERSON_AND_ORGANIZATION_ROLE ( 'design_supplier' ) ;
#89 = COORDINATED_UNIVERSAL_TIME_OFFSET ( 5, 0, .BEHIND. ) ;
#90 = DIRECTION ( 'NONE',  ( 1.000000000000000000, 0.0000000000000000000, 0.0000000000000000000 ) ) ;
#91 = APPROVAL ( #139, 'UNSPECIFIED' ) ;
#92 = CIRCLE ( 'NONE', #132, 25.39999999999999900 ) ;
#93 = FACE_OUTER_BOUND ( 'NONE', #175, .T. ) ;
#94 = CYLINDRICAL_SURFACE ( 'NONE', #22, 25.39999999999999900 ) ;
#95 = AXIS2_PLACEMENT_3D ( 'NONE', #75, #4, #68 ) ;
#96 = ORIENTED_EDGE ( 'NONE', *, *, #125, .F. ) ;
#97 = ORIENTED_EDGE ( 'NONE', *, *, #135, .T. ) ;
#98 = PLANE ( 'NONE',  #160 ) ;
#99 = APPLICATION_CONTEXT ( 'configuration controlled 3d designs of mechanical parts and assemblies' ) ;
#100 = CC_DESIGN_PERSON_AND_ORGANIZATION_ASSIGNMENT ( #52, #119, ( #138 ) ) ;
#101 = DIRECTION ( 'NONE',  ( 0.0000000000000000000, 0.0000000000000000000, 1.000000000000000000 ) ) ;
#102 = SHAPE_DEFINITION_REPRESENTATION ( #117, #137 ) ;
#103 = CARTESIAN_POINT ( 'NONE',  ( 25.39999999999999900, 3.110602869834276900E-015, 1.500000000000000000 ) ) ;
#104 = DIRECTION ( 'NONE',  ( 0.0000000000000000000, 0.0000000000000000000, 1.000000000000000000 ) ) ;
#105 = APPROVAL ( #167, 'UNSPECIFIED' ) ;
#106 = PERSON_AND_ORGANIZATION_ROLE ( 'design_owner' ) ;
#107 = VECTOR ( 'NONE', #41, 1000.000000000000000 ) ;
#108 = AXIS2_PLACEMENT_3D ( 'NONE', #131, #104, #90 ) ;
#109 = EDGE_CURVE ( 'NONE', #142, #149, #56, .T. ) ;
#110 = LOCAL_TIME ( 16, 55, 32.00000000000000000, #158 ) ;
#111 = UNCERTAINTY_MEASURE_WITH_UNIT (LENGTH_MEASURE( 1.000000000000000100E-005 ), #65, 'distance_accuracy_value', 'NONE');
#112 = CC_DESIGN_APPROVAL ( #105, ( #35 ) ) ;
#113 = DIRECTION ( 'NONE',  ( 0.0000000000000000000, 0.0000000000000000000, 1.000000000000000000 ) ) ;
#114 = PLANE ( 'NONE',  #72 ) ;
#115 = PERSON_AND_ORGANIZATION ( #57, #74 ) ;
#116 = DIRECTION ( 'NONE',  ( 0.0000000000000000000, 0.0000000000000000000, 1.000000000000000000 ) ) ;
#117 = PRODUCT_DEFINITION_SHAPE ( 'NONE', 'NONE',  #12 ) ;
#118 = VERTEX_POINT ( 'NONE', #166 ) ;
#119 = PERSON_AND_ORGANIZATION_ROLE ( 'classification_officer' ) ;
#120 = PERSON_AND_ORGANIZATION_ROLE ( 'creator' ) ;
#121 = PERSON_AND_ORGANIZATION ( #57, #74 ) ;
#122 = DATE_AND_TIME ( #154, #110 ) ;
#123 = AXIS2_PLACEMENT_3D ( 'NONE', #50, #101, #165 ) ;
#124 = VERTEX_POINT ( 'NONE', #37 ) ;
#125 = EDGE_CURVE ( 'NONE', #149, #142, #64, .T. ) ;
#126 = EDGE_CURVE ( 'NONE', #124, #118, #130, .T. ) ;
#127 = DATE_AND_TIME ( #171, #62 ) ;
#128 = ORIENTED_EDGE ( 'NONE', *, *, #109, .T. ) ;
#129 = DIRECTION ( 'NONE',  ( 0.0000000000000000000, 0.0000000000000000000, 1.000000000000000000 ) ) ;
#130 = CIRCLE ( 'NONE', #95, 25.39999999999999900 ) ;
#131 = CARTESIAN_POINT ( 'NONE',  ( 0.0000000000000000000, 0.0000000000000000000, 0.0000000000000000000 ) ) ;
#132 = AXIS2_PLACEMENT_3D ( 'NONE', #86, #116, #54 ) ;
#133 = PERSON_AND_ORGANIZATION ( #57, #74 ) ;
#134 = APPROVAL_STATUS ( 'not_yet_approved' ) ;
#135 = EDGE_CURVE ( 'NONE', #118, #124, #92, .T. ) ;
#136 = DATE_TIME_ROLE ( 'classification_date' ) ;
#137 = ADVANCED_BREP_SHAPE_REPRESENTATION ( 'Web Model 39402_39415', ( #151, #108 ), #32 ) ;
#138 = SECURITY_CLASSIFICATION ( '', '', #43 ) ;
#139 = APPROVAL_STATUS ( 'not_yet_approved' ) ;
#140 = APPROVAL_DATE_TIME ( #5, #91 ) ;
#141 = CALENDAR_DATE ( 2018, 5, 10 ) ;
#142 = VERTEX_POINT ( 'NONE', #16 ) ;
#143 = CC_DESIGN_PERSON_AND_ORGANIZATION_ASSIGNMENT ( #115, #120, ( #12 ) ) ;
#144 = DIRECTION ( 'NONE',  ( -0.0000000000000000000, -0.0000000000000000000, -1.000000000000000000 ) ) ;
#145 = EDGE_CURVE ( 'NONE', #118, #142, #163, .T. ) ;
#146 = CARTESIAN_POINT ( 'NONE',  ( 0.0000000000000000000, 0.0000000000000000000, -1.500000000000000000 ) ) ;
#147 = DIRECTION ( 'NONE',  ( -0.0000000000000000000, -0.0000000000000000000, -1.000000000000000000 ) ) ;
#148 = LOCAL_TIME ( 16, 55, 32.00000000000000000, #2 ) ;
#149 = VERTEX_POINT ( 'NONE', #27 ) ;
#150 = DATE_TIME_ROLE ( 'creation_date' ) ;
#151 = MANIFOLD_SOLID_BREP ( 'Boss-Extrude1', #61 ) ;
#152 = EDGE_LOOP ( 'NONE', ( #161, #7, #128, #31 ) ) ;
#153 = PERSON_AND_ORGANIZATION_ROLE ( 'creator' ) ;
#154 = CALENDAR_DATE ( 2018, 5, 10 ) ;
#155 = ORIENTED_EDGE ( 'NONE', *, *, #126, .F. ) ;
#156 = CC_DESIGN_DATE_AND_TIME_ASSIGNMENT ( #18, #150, ( #12 ) ) ;
#157 = CC_DESIGN_DATE_AND_TIME_ASSIGNMENT ( #127, #136, ( #138 ) ) ;
#158 = COORDINATED_UNIVERSAL_TIME_OFFSET ( 5, 0, .BEHIND. ) ;
#159 = ORIENTED_EDGE ( 'NONE', *, *, #39, .T. ) ;
#160 = AXIS2_PLACEMENT_3D ( 'NONE', #24, #113, #49 ) ;
#161 = ORIENTED_EDGE ( 'NONE', *, *, #135, .F. ) ;
#162 =( NAMED_UNIT ( * ) PLANE_ANGLE_UNIT ( ) SI_UNIT ( $, .RADIAN. ) );
#163 = LINE ( 'NONE', #103, #107 ) ;
#164 = APPROVAL_DATE_TIME ( #45, #28 ) ;
#165 = DIRECTION ( 'NONE',  ( 1.000000000000000000, 0.0000000000000000000, 0.0000000000000000000 ) ) ;
#166 = CARTESIAN_POINT ( 'NONE',  ( 25.39999999999999900, 3.110602869834276900E-015, 1.500000000000000000 ) ) ;
#167 = APPROVAL_STATUS ( 'not_yet_approved' ) ;
#168 = COORDINATED_UNIVERSAL_TIME_OFFSET ( 5, 0, .BEHIND. ) ;
#169 = APPROVAL_ROLE ( '' ) ;
#170 = CC_DESIGN_APPROVAL ( #91, ( #138 ) ) ;
#171 = CALENDAR_DATE ( 2018, 5, 10 ) ;
#172 = ADVANCED_FACE ( 'NONE', ( #9 ), #98, .T. ) ;
#173 = PERSON_AND_ORGANIZATION ( #57, #74 ) ;
#174 = CC_DESIGN_PERSON_AND_ORGANIZATION_ASSIGNMENT ( #84, #106, ( #44 ) ) ;
#175 = EDGE_LOOP ( 'NONE', ( #87, #155, #159, #42 ) ) ;
ENDSEC;
END-ISO-10303-21;
