ISO-10303-21;
HEADER;
FILE_DESCRIPTION (( 'STEP AP203' ),
    '1' );
FILE_NAME ('Web Model 68415.STEP',
    '2017-01-31T20:00:00',
    ( '' ),
    ( '' ),
    'SwSTEP 2.0',
    'SolidWorks 2016',
    '' );
FILE_SCHEMA (( 'CONFIG_CONTROL_DESIGN' ));
ENDSEC;

DATA;
#1 = DIRECTION ( 'NONE',  ( -1.000000000000000000, -1.850371707708594100E-016, 0.0000000000000000000 ) ) ;
#2 = DATE_TIME_ROLE ( 'classification_date' ) ;
#3 = PERSON_AND_ORGANIZATION ( #61, #128 ) ;
#4 = ORIENTED_EDGE ( 'NONE', *, *, #187, .T. ) ;
#5 = ADVANCED_FACE ( 'NONE', ( #191 ), #33, .F. ) ;
#6 = ORIENTED_EDGE ( 'NONE', *, *, #170, .T. ) ;
#7 = AXIS2_PLACEMENT_3D ( 'NONE', #216, #117, #1 ) ;
#8 = LOCAL_TIME ( 15, 0, 0.0000000000000000000, #125 ) ;
#9 = FACE_OUTER_BOUND ( 'NONE', #201, .T. ) ;
#10 = DIRECTION ( 'NONE',  ( -1.000000000000000000, 0.0000000000000000000, 0.0000000000000000000 ) ) ;
#11 = ORIENTED_EDGE ( 'NONE', *, *, #73, .T. ) ;
#12 = PLANE ( 'NONE',  #190 ) ;
#13 = ADVANCED_BREP_SHAPE_REPRESENTATION ( 'Web Model 68415', ( #51, #233 ), #230 ) ;
#14 = PLANE ( 'NONE',  #203 ) ;
#15 = DIRECTION ( 'NONE',  ( 1.000000000000000000, 1.850371707708594300E-016, -0.0000000000000000000 ) ) ;
#16 = ORIENTED_EDGE ( 'NONE', *, *, #73, .F. ) ;
#17 = VECTOR ( 'NONE', #15, 1000.000000000000000 ) ;
#18 = CC_DESIGN_PERSON_AND_ORGANIZATION_ASSIGNMENT ( #3, #65, ( #199 ) ) ;
#19 = LOCAL_TIME ( 15, 0, 0.0000000000000000000, #66 ) ;
#20 = CARTESIAN_POINT ( 'NONE',  ( -37.50000000000000700, 37.49999999999999300, 3.000000000000000000 ) ) ;
#21 = ORIENTED_EDGE ( 'NONE', *, *, #173, .T. ) ;
#22 = APPROVAL_ROLE ( '' ) ;
#23 = FACE_OUTER_BOUND ( 'NONE', #131, .T. ) ;
#24 = APPLICATION_PROTOCOL_DEFINITION ( 'international standard', 'config_control_design', 1994, #221 ) ;
#25 = ORIENTED_EDGE ( 'NONE', *, *, #195, .F. ) ;
#26 = APPROVAL_STATUS ( 'not_yet_approved' ) ;
#27 = DATE_AND_TIME ( #32, #47 ) ;
#28 = EDGE_LOOP ( 'NONE', ( #115, #96, #21, #11 ) ) ;
#29 = LINE ( 'NONE', #166, #208 ) ;
#30 = LINE ( 'NONE', #175, #105 ) ;
#31 = CC_DESIGN_SECURITY_CLASSIFICATION ( #162, ( #199 ) ) ;
#32 = CALENDAR_DATE ( 2017, 31, 1 ) ;
#33 = PLANE ( 'NONE',  #63 ) ;
#34 = EDGE_CURVE ( 'NONE', #198, #232, #145, .T. ) ;
#35 = VECTOR ( 'NONE', #146, 1000.000000000000000 ) ;
#36 = CARTESIAN_POINT ( 'NONE',  ( -37.50000000000000700, 37.49999999999999300, 0.0000000000000000000 ) ) ;
#37 = CARTESIAN_POINT ( 'NONE',  ( -37.50000000000000000, -37.50000000000000700, 0.0000000000000000000 ) ) ;
#38 = PLANE ( 'NONE',  #7 ) ;
#39 = DIRECTION ( 'NONE',  ( 1.000000000000000000, 9.251858538542970300E-017, -0.0000000000000000000 ) ) ;
#40 = APPLICATION_CONTEXT ( 'configuration controlled 3d designs of mechanical parts and assemblies' ) ;
#41 = COORDINATED_UNIVERSAL_TIME_OFFSET ( 5, 0, .BEHIND. ) ;
#42 = LINE ( 'NONE', #134, #154 ) ;
#43 = APPROVAL_ROLE ( '' ) ;
#44 = ADVANCED_FACE ( 'NONE', ( #9 ), #14, .T. ) ;
#45 = ADVANCED_FACE ( 'NONE', ( #87 ), #12, .F. ) ;
#46 = VECTOR ( 'NONE', #55, 1000.000000000000000 ) ;
#47 = LOCAL_TIME ( 15, 0, 0.0000000000000000000, #41 ) ;
#48 = ORIENTED_EDGE ( 'NONE', *, *, #169, .F. ) ;
#49 = CC_DESIGN_PERSON_AND_ORGANIZATION_ASSIGNMENT ( #74, #123, ( #116 ) ) ;
#50 = APPROVAL ( #140, 'UNSPECIFIED' ) ;
#51 = MANIFOLD_SOLID_BREP ( 'Extrude1', #220 ) ;
#52 = ORIENTED_EDGE ( 'NONE', *, *, #101, .T. ) ;
#53 = LOCAL_TIME ( 15, 0, 0.0000000000000000000, #85 ) ;
#54 = VERTEX_POINT ( 'NONE', #70 ) ;
#55 = DIRECTION ( 'NONE',  ( 9.251858538542971600E-017, -1.000000000000000000, 0.0000000000000000000 ) ) ;
#56 = ORIENTED_EDGE ( 'NONE', *, *, #101, .F. ) ;
#57 = CARTESIAN_POINT ( 'NONE',  ( -37.50000000000000700, 37.49999999999999300, 3.000000000000000000 ) ) ;
#58 = APPROVAL ( #26, 'UNSPECIFIED' ) ;
#59 = CARTESIAN_POINT ( 'NONE',  ( 37.50000000000000000, -37.49999999999999300, 3.000000000000000000 ) ) ;
#60 = DIRECTION ( 'NONE',  ( -0.0000000000000000000, -0.0000000000000000000, -1.000000000000000000 ) ) ;
#61 = PERSON ( 'UNSPECIFIED', 'UNSPECIFIED', 'UNSPECIFIED', ('UNSPECIFIED'), ('UNSPECIFIED'), ('UNSPECIFIED') ) ;
#62 = APPROVAL_PERSON_ORGANIZATION ( #109, #50, #185 ) ;
#63 = AXIS2_PLACEMENT_3D ( 'NONE', #177, #91, #72 ) ;
#64 = LINE ( 'NONE', #192, #46 ) ;
#65 = PERSON_AND_ORGANIZATION_ROLE ( 'design_supplier' ) ;
#66 = COORDINATED_UNIVERSAL_TIME_OFFSET ( 5, 0, .BEHIND. ) ;
#67 = EDGE_LOOP ( 'NONE', ( #6, #82, #108, #4 ) ) ;
#68 = VECTOR ( 'NONE', #77, 1000.000000000000000 ) ;
#69 = APPROVAL_DATE_TIME ( #206, #214 ) ;
#70 = CARTESIAN_POINT ( 'NONE',  ( 37.50000000000000000, 37.49999999999999300, 0.0000000000000000000 ) ) ;
#71 = APPROVAL_PERSON_ORGANIZATION ( #114, #214, #43 ) ;
#72 = DIRECTION ( 'NONE',  ( 0.0000000000000000000, 0.0000000000000000000, 1.000000000000000000 ) ) ;
#73 = EDGE_CURVE ( 'NONE', #237, #144, #30, .T. ) ;
#74 = PERSON_AND_ORGANIZATION ( #61, #128 ) ;
#75 = LINE ( 'NONE', #98, #17 ) ;
#76 = ORIENTED_EDGE ( 'NONE', *, *, #141, .T. ) ;
#77 = DIRECTION ( 'NONE',  ( 9.251858538542971600E-017, -1.000000000000000000, 0.0000000000000000000 ) ) ;
#78 = DIRECTION ( 'NONE',  ( -0.0000000000000000000, -0.0000000000000000000, -1.000000000000000000 ) ) ;
#79 = PERSON_AND_ORGANIZATION ( #61, #128 ) ;
#80 = VECTOR ( 'NONE', #236, 1000.000000000000000 ) ;
#81 = CARTESIAN_POINT ( 'NONE',  ( 37.50000000000000000, 37.49999999999999300, 3.000000000000000000 ) ) ;
#82 = ORIENTED_EDGE ( 'NONE', *, *, #111, .F. ) ;
#83 = DATE_TIME_ROLE ( 'creation_date' ) ;
#84 = CARTESIAN_POINT ( 'NONE',  ( 37.50000000000000000, 37.49999999999999300, 3.000000000000000000 ) ) ;
#85 = COORDINATED_UNIVERSAL_TIME_OFFSET ( 5, 0, .BEHIND. ) ;
#86 = ORIENTED_EDGE ( 'NONE', *, *, #195, .T. ) ;
#87 = FACE_OUTER_BOUND ( 'NONE', #28, .T. ) ;
#88 = CALENDAR_DATE ( 2017, 31, 1 ) ;
#89 = VERTEX_POINT ( 'NONE', #132 ) ;
#90 = PERSON_AND_ORGANIZATION ( #61, #128 ) ;
#91 = DIRECTION ( 'NONE',  ( -1.000000000000000000, 0.0000000000000000000, 0.0000000000000000000 ) ) ;
#92 = CARTESIAN_POINT ( 'NONE',  ( 37.50000000000000000, -37.49999999999999300, 3.000000000000000000 ) ) ;
#93 = PLANE ( 'NONE',  #211 ) ;
#94 = DIRECTION ( 'NONE',  ( -9.251858538542970300E-017, 1.000000000000000000, 0.0000000000000000000 ) ) ;
#95 = APPROVAL_DATE_TIME ( #150, #50 ) ;
#96 = ORIENTED_EDGE ( 'NONE', *, *, #169, .T. ) ;
#97 = FACE_OUTER_BOUND ( 'NONE', #67, .T. ) ;
#98 = CARTESIAN_POINT ( 'NONE',  ( 37.50000000000000000, -37.49999999999999300, 3.000000000000000000 ) ) ;
#99 = CARTESIAN_POINT ( 'NONE',  ( 37.50000000000000000, -37.49999999999999300, 0.0000000000000000000 ) ) ;
#100 = ADVANCED_FACE ( 'NONE', ( #23 ), #229, .F. ) ;
#101 = EDGE_CURVE ( 'NONE', #129, #232, #120, .T. ) ;
#102 = PRODUCT_DEFINITION ( 'UNKNOWN', '', #199, #223 ) ;
#103 = PERSON_AND_ORGANIZATION_ROLE ( 'creator' ) ;
#104 = DIRECTION ( 'NONE',  ( -1.000000000000000000, 0.0000000000000000000, 0.0000000000000000000 ) ) ;
#105 = VECTOR ( 'NONE', #10, 1000.000000000000000 ) ;
#106 = APPROVAL_DATE_TIME ( #27, #58 ) ;
#107 = LINE ( 'NONE', #196, #164 ) ;
#108 = ORIENTED_EDGE ( 'NONE', *, *, #127, .F. ) ;
#109 = PERSON_AND_ORGANIZATION ( #61, #128 ) ;
#110 = VECTOR ( 'NONE', #78, 1000.000000000000000 ) ;
#111 = EDGE_CURVE ( 'NONE', #89, #198, #42, .T. ) ;
#112 = DIRECTION ( 'NONE',  ( 0.0000000000000000000, -1.000000000000000000, 0.0000000000000000000 ) ) ;
#113 = CC_DESIGN_DATE_AND_TIME_ASSIGNMENT ( #181, #83, ( #102 ) ) ;
#114 = PERSON_AND_ORGANIZATION ( #61, #128 ) ;
#115 = ORIENTED_EDGE ( 'NONE', *, *, #127, .T. ) ;
#116 = PRODUCT ( 'Web Model 68415', 'Web Model 68415', '', ( #122 ) ) ;
#117 = DIRECTION ( 'NONE',  ( -1.850371707708594100E-016, 1.000000000000000000, 0.0000000000000000000 ) ) ;
#118 = ADVANCED_FACE ( 'NONE', ( #186 ), #38, .F. ) ;
#119 = ORIENTED_EDGE ( 'NONE', *, *, #141, .F. ) ;
#120 = LINE ( 'NONE', #92, #110 ) ;
#121 = APPROVAL_STATUS ( 'not_yet_approved' ) ;
#122 = MECHANICAL_CONTEXT ( 'NONE', #40, 'mechanical' ) ;
#123 = PERSON_AND_ORGANIZATION_ROLE ( 'design_owner' ) ;
#124 = CC_DESIGN_PERSON_AND_ORGANIZATION_ASSIGNMENT ( #90, #103, ( #199 ) ) ;
#125 = COORDINATED_UNIVERSAL_TIME_OFFSET ( 5, 0, .BEHIND. ) ;
#126 = VECTOR ( 'NONE', #179, 1000.000000000000000 ) ;
#127 = EDGE_CURVE ( 'NONE', #144, #89, #64, .T. ) ;
#128 = ORGANIZATION ( 'UNSPECIFIED', 'UNSPECIFIED', '' ) ;
#129 = VERTEX_POINT ( 'NONE', #59 ) ;
#130 = CARTESIAN_POINT ( 'NONE',  ( -37.50000000000000000, -37.50000000000000700, 3.000000000000000000 ) ) ;
#131 = EDGE_LOOP ( 'NONE', ( #86, #209, #16, #76 ) ) ;
#132 = CARTESIAN_POINT ( 'NONE',  ( -37.50000000000000000, -37.50000000000000700, 3.000000000000000000 ) ) ;
#133 = CARTESIAN_POINT ( 'NONE',  ( -37.50000000000000700, 37.49999999999999300, 3.000000000000000000 ) ) ;
#134 = CARTESIAN_POINT ( 'NONE',  ( -37.50000000000000000, -37.50000000000000700, 3.000000000000000000 ) ) ;
#135 = APPROVAL_PERSON_ORGANIZATION ( #222, #58, #22 ) ;
#136 = CARTESIAN_POINT ( 'NONE',  ( -37.50000000000000700, 37.49999999999999300, 0.0000000000000000000 ) ) ;
#137 = DIRECTION ( 'NONE',  ( 0.0000000000000000000, 0.0000000000000000000, 1.000000000000000000 ) ) ;
#138 = LINE ( 'NONE', #81, #80 ) ;
#139 = CARTESIAN_POINT ( 'NONE',  ( 0.0000000000000000000, 0.0000000000000000000, 0.0000000000000000000 ) ) ;
#140 = APPROVAL_STATUS ( 'not_yet_approved' ) ;
#141 = EDGE_CURVE ( 'NONE', #237, #54, #212, .T. ) ;
#142 = EDGE_LOOP ( 'NONE', ( #182, #119, #189, #52 ) ) ;
#143 = DIRECTION ( 'NONE',  ( 0.0000000000000000000, 0.0000000000000000000, -1.000000000000000000 ) ) ;
#144 = VERTEX_POINT ( 'NONE', #20 ) ;
#145 = LINE ( 'NONE', #234, #35 ) ;
#146 = DIRECTION ( 'NONE',  ( 1.000000000000000000, 1.850371707708594300E-016, -0.0000000000000000000 ) ) ;
#147 = UNCERTAINTY_MEASURE_WITH_UNIT (LENGTH_MEASURE( 1.000000000000000100E-005 ), #200, 'distance_accuracy_value', 'NONE');
#148 = DIRECTION ( 'NONE',  ( 0.0000000000000000000, 0.0000000000000000000, -1.000000000000000000 ) ) ;
#149 = ORIENTED_EDGE ( 'NONE', *, *, #111, .T. ) ;
#150 = DATE_AND_TIME ( #88, #8 ) ;
#151 = LINE ( 'NONE', #57, #126 ) ;
#152 = PERSON_AND_ORGANIZATION_ROLE ( 'creator' ) ;
#153 = VERTEX_POINT ( 'NONE', #136 ) ;
#154 = VECTOR ( 'NONE', #60, 1000.000000000000000 ) ;
#155 = SECURITY_CLASSIFICATION_LEVEL ( 'unclassified' ) ;
#156 = CC_DESIGN_PERSON_AND_ORGANIZATION_ASSIGNMENT ( #79, #152, ( #102 ) ) ;
#157 = DATE_AND_TIME ( #176, #204 ) ;
#158 = ORIENTED_EDGE ( 'NONE', *, *, #170, .F. ) ;
#159 = LINE ( 'NONE', #36, #68 ) ;
#160 = PERSON_AND_ORGANIZATION_ROLE ( 'classification_officer' ) ;
#161 = ORIENTED_EDGE ( 'NONE', *, *, #34, .F. ) ;
#162 = SECURITY_CLASSIFICATION ( '', '', #155 ) ;
#163 = CALENDAR_DATE ( 2017, 31, 1 ) ;
#164 = VECTOR ( 'NONE', #104, 1000.000000000000000 ) ;
#165 = CARTESIAN_POINT ( 'NONE',  ( -37.50000000000000000, -37.50000000000000700, 0.0000000000000000000 ) ) ;
#166 = CARTESIAN_POINT ( 'NONE',  ( 37.50000000000000000, 37.49999999999999300, 0.0000000000000000000 ) ) ;
#167 = ADVANCED_FACE ( 'NONE', ( #97 ), #93, .F. ) ;
#168 = SHAPE_DEFINITION_REPRESENTATION ( #193, #13 ) ;
#169 = EDGE_CURVE ( 'NONE', #89, #129, #75, .T. ) ;
#170 = EDGE_CURVE ( 'NONE', #153, #198, #159, .T. ) ;
#171 = APPLICATION_PROTOCOL_DEFINITION ( 'international standard', 'config_control_design', 1994, #40 ) ;
#172 = ORIENTED_EDGE ( 'NONE', *, *, #178, .F. ) ;
#173 = EDGE_CURVE ( 'NONE', #129, #237, #138, .T. ) ;
#174 = PERSON_AND_ORGANIZATION ( #61, #128 ) ;
#175 = CARTESIAN_POINT ( 'NONE',  ( 37.50000000000000000, 37.49999999999999300, 3.000000000000000000 ) ) ;
#176 = CALENDAR_DATE ( 2017, 31, 1 ) ;
#177 = CARTESIAN_POINT ( 'NONE',  ( 37.50000000000000000, 37.49999999999999300, 3.000000000000000000 ) ) ;
#178 = EDGE_CURVE ( 'NONE', #232, #54, #29, .T. ) ;
#179 = DIRECTION ( 'NONE',  ( -0.0000000000000000000, -0.0000000000000000000, -1.000000000000000000 ) ) ;
#180 = DIRECTION ( 'NONE',  ( -0.0000000000000000000, -0.0000000000000000000, -1.000000000000000000 ) ) ;
#181 = DATE_AND_TIME ( #231, #53 ) ;
#182 = ORIENTED_EDGE ( 'NONE', *, *, #178, .T. ) ;
#183 = VECTOR ( 'NONE', #180, 1000.000000000000000 ) ;
#184 = PRODUCT_RELATED_PRODUCT_CATEGORY ( 'detail', '', ( #116 ) ) ;
#185 = APPROVAL_ROLE ( '' ) ;
#186 = FACE_OUTER_BOUND ( 'NONE', #226, .T. ) ;
#187 = EDGE_CURVE ( 'NONE', #144, #153, #151, .T. ) ;
#188 = CC_DESIGN_DATE_AND_TIME_ASSIGNMENT ( #157, #2, ( #162 ) ) ;
#189 = ORIENTED_EDGE ( 'NONE', *, *, #173, .F. ) ;
#190 = AXIS2_PLACEMENT_3D ( 'NONE', #130, #143, #207 ) ;
#191 = FACE_OUTER_BOUND ( 'NONE', #142, .T. ) ;
#192 = CARTESIAN_POINT ( 'NONE',  ( -37.50000000000000700, 37.49999999999999300, 3.000000000000000000 ) ) ;
#193 = PRODUCT_DEFINITION_SHAPE ( 'NONE', 'NONE',  #102 ) ;
#194 = CARTESIAN_POINT ( 'NONE',  ( 37.50000000000000000, 37.49999999999999300, 3.000000000000000000 ) ) ;
#195 = EDGE_CURVE ( 'NONE', #54, #153, #107, .T. ) ;
#196 = CARTESIAN_POINT ( 'NONE',  ( 37.50000000000000000, 37.49999999999999300, 0.0000000000000000000 ) ) ;
#197 =( NAMED_UNIT ( * ) PLANE_ANGLE_UNIT ( ) SI_UNIT ( $, .RADIAN. ) );
#198 = VERTEX_POINT ( 'NONE', #37 ) ;
#199 = PRODUCT_DEFINITION_FORMATION_WITH_SPECIFIED_SOURCE ( 'ANY', '', #116, .NOT_KNOWN. ) ;
#200 =( LENGTH_UNIT ( ) NAMED_UNIT ( * ) SI_UNIT ( .MILLI., .METRE. ) );
#201 = EDGE_LOOP ( 'NONE', ( #158, #25, #172, #161 ) ) ;
#202 = CC_DESIGN_APPROVAL ( #50, ( #102 ) ) ;
#203 = AXIS2_PLACEMENT_3D ( 'NONE', #165, #148, #228 ) ;
#204 = LOCAL_TIME ( 15, 0, 0.0000000000000000000, #225 ) ;
#205 = ORIENTED_EDGE ( 'NONE', *, *, #34, .T. ) ;
#206 = DATE_AND_TIME ( #163, #19 ) ;
#207 = DIRECTION ( 'NONE',  ( -1.000000000000000000, 0.0000000000000000000, -0.0000000000000000000 ) ) ;
#208 = VECTOR ( 'NONE', #217, 1000.000000000000000 ) ;
#209 = ORIENTED_EDGE ( 'NONE', *, *, #187, .F. ) ;
#210 = CC_DESIGN_APPROVAL ( #58, ( #199 ) ) ;
#211 = AXIS2_PLACEMENT_3D ( 'NONE', #133, #39, #94 ) ;
#212 = LINE ( 'NONE', #194, #183 ) ;
#213 = CARTESIAN_POINT ( 'NONE',  ( 37.50000000000000000, 37.49999999999999300, 3.000000000000000000 ) ) ;
#214 = APPROVAL ( #121, 'UNSPECIFIED' ) ;
#215 = DIRECTION ( 'NONE',  ( 0.0000000000000000000, -0.0000000000000000000, -1.000000000000000000 ) ) ;
#216 = CARTESIAN_POINT ( 'NONE',  ( 37.50000000000000000, -37.49999999999999300, 3.000000000000000000 ) ) ;
#217 = DIRECTION ( 'NONE',  ( -0.0000000000000000000, 1.000000000000000000, -0.0000000000000000000 ) ) ;
#218 = DIRECTION ( 'NONE',  ( 1.000000000000000000, 0.0000000000000000000, 0.0000000000000000000 ) ) ;
#219 =( NAMED_UNIT ( * ) SI_UNIT ( $, .STERADIAN. ) SOLID_ANGLE_UNIT ( ) );
#220 = CLOSED_SHELL ( 'NONE', ( #167, #118, #5, #100, #45, #44 ) ) ;
#221 = APPLICATION_CONTEXT ( 'configuration controlled 3d designs of mechanical parts and assemblies' ) ;
#222 = PERSON_AND_ORGANIZATION ( #61, #128 ) ;
#223 = DESIGN_CONTEXT ( 'detailed design', #221, 'design' ) ;
#224 = CC_DESIGN_PERSON_AND_ORGANIZATION_ASSIGNMENT ( #174, #160, ( #162 ) ) ;
#225 = COORDINATED_UNIVERSAL_TIME_OFFSET ( 5, 0, .BEHIND. ) ;
#226 = EDGE_LOOP ( 'NONE', ( #205, #56, #48, #149 ) ) ;
#227 = CC_DESIGN_APPROVAL ( #214, ( #162 ) ) ;
#228 = DIRECTION ( 'NONE',  ( -1.000000000000000000, 0.0000000000000000000, -0.0000000000000000000 ) ) ;
#229 = PLANE ( 'NONE',  #235 ) ;
#230 =( GEOMETRIC_REPRESENTATION_CONTEXT ( 3 ) GLOBAL_UNCERTAINTY_ASSIGNED_CONTEXT ( ( #147 ) ) GLOBAL_UNIT_ASSIGNED_CONTEXT ( ( #200, #197, #219 ) ) REPRESENTATION_CONTEXT ( 'NONE', 'WORKASPACE' ) );
#231 = CALENDAR_DATE ( 2017, 31, 1 ) ;
#232 = VERTEX_POINT ( 'NONE', #99 ) ;
#233 = AXIS2_PLACEMENT_3D ( 'NONE', #139, #137, #218 ) ;
#234 = CARTESIAN_POINT ( 'NONE',  ( 37.50000000000000000, -37.49999999999999300, 0.0000000000000000000 ) ) ;
#235 = AXIS2_PLACEMENT_3D ( 'NONE', #213, #112, #215 ) ;
#236 = DIRECTION ( 'NONE',  ( -0.0000000000000000000, 1.000000000000000000, -0.0000000000000000000 ) ) ;
#237 = VERTEX_POINT ( 'NONE', #84 ) ;
ENDSEC;
END-ISO-10303-21;
