ISO-10303-21;
HEADER;
FILE_DESCRIPTION (( 'STEP AP203' ),
    '1' );
FILE_NAME ('Web Model 68383.STEP',
    '2017-01-31T19:52:55',
    ( '' ),
    ( '' ),
    'SwSTEP 2.0',
    'SolidWorks 2016',
    '' );
FILE_SCHEMA (( 'CONFIG_CONTROL_DESIGN' ));
ENDSEC;

DATA;
#1 = LINE ( 'NONE', #42, #4 ) ;
#2 = DIRECTION ( 'NONE',  ( 1.000000000000000000, 0.0000000000000000000, 0.0000000000000000000 ) ) ;
#3 = VECTOR ( 'NONE', #153, 1000.000000000000000 ) ;
#4 = VECTOR ( 'NONE', #166, 1000.000000000000000 ) ;
#5 = EDGE_CURVE ( 'NONE', #8, #207, #114, .T. ) ;
#6 = COORDINATED_UNIVERSAL_TIME_OFFSET ( 5, 0, .BEHIND. ) ;
#7 = DIRECTION ( 'NONE',  ( 0.0000000000000000000, -1.000000000000000000, 0.0000000000000000000 ) ) ;
#8 = VERTEX_POINT ( 'NONE', #200 ) ;
#9 = APPLICATION_PROTOCOL_DEFINITION ( 'international standard', 'config_control_design', 1994, #44 ) ;
#10 = CALENDAR_DATE ( 2017, 31, 1 ) ;
#11 = EDGE_LOOP ( 'NONE', ( #201, #145, #218, #58 ) ) ;
#12 = DIRECTION ( 'NONE',  ( -1.000000000000000000, -0.0000000000000000000, -0.0000000000000000000 ) ) ;
#13 = CC_DESIGN_APPROVAL ( #224, ( #211 ) ) ;
#14 = ADVANCED_FACE ( 'NONE', ( #143 ), #168, .F. ) ;
#15 = LINE ( 'NONE', #77, #204 ) ;
#16 = AXIS2_PLACEMENT_3D ( 'NONE', #17, #22, #102 ) ;
#17 = CARTESIAN_POINT ( 'NONE',  ( 8.750000000000000000, -6.250000000000000900, 0.0000000000000000000 ) ) ;
#18 = PERSON_AND_ORGANIZATION ( #71, #217 ) ;
#19 = ORIENTED_EDGE ( 'NONE', *, *, #208, .F. ) ;
#20 = DATE_AND_TIME ( #34, #38 ) ;
#21 = PERSON_AND_ORGANIZATION ( #71, #217 ) ;
#22 = DIRECTION ( 'NONE',  ( -0.0000000000000000000, 0.0000000000000000000, 1.000000000000000000 ) ) ;
#23 = ORIENTED_EDGE ( 'NONE', *, *, #5, .F. ) ;
#24 = EDGE_CURVE ( 'NONE', #123, #49, #1, .T. ) ;
#25 = CC_DESIGN_PERSON_AND_ORGANIZATION_ASSIGNMENT ( #18, #162, ( #211 ) ) ;
#26 = PLANE ( 'NONE',  #173 ) ;
#27 = DIRECTION ( 'NONE',  ( 0.0000000000000000000, 0.0000000000000000000, 1.000000000000000000 ) ) ;
#28 = ORIENTED_EDGE ( 'NONE', *, *, #195, .T. ) ;
#29 = CARTESIAN_POINT ( 'NONE',  ( -8.750000000000000000, -6.250000000000000900, 3.000000000000000000 ) ) ;
#30 =( GEOMETRIC_REPRESENTATION_CONTEXT ( 3 ) GLOBAL_UNCERTAINTY_ASSIGNED_CONTEXT ( ( #146 ) ) GLOBAL_UNIT_ASSIGNED_CONTEXT ( ( #132, #112, #74 ) ) REPRESENTATION_CONTEXT ( 'NONE', 'WORKASPACE' ) );
#31 = CARTESIAN_POINT ( 'NONE',  ( -8.750000000000000000, 6.249999999999999100, 0.0000000000000000000 ) ) ;
#32 = APPROVAL_ROLE ( '' ) ;
#33 = VERTEX_POINT ( 'NONE', #125 ) ;
#34 = CALENDAR_DATE ( 2017, 31, 1 ) ;
#35 = FACE_OUTER_BOUND ( 'NONE', #106, .T. ) ;
#36 = CC_DESIGN_PERSON_AND_ORGANIZATION_ASSIGNMENT ( #67, #121, ( #211 ) ) ;
#37 = DIRECTION ( 'NONE',  ( -0.0000000000000000000, -0.0000000000000000000, -1.000000000000000000 ) ) ;
#38 = LOCAL_TIME ( 14, 52, 55.00000000000000000, #97 ) ;
#39 = VECTOR ( 'NONE', #133, 1000.000000000000000 ) ;
#40 = ORIENTED_EDGE ( 'NONE', *, *, #237, .T. ) ;
#41 = AXIS2_PLACEMENT_3D ( 'NONE', #62, #186, #57 ) ;
#42 = CARTESIAN_POINT ( 'NONE',  ( -8.750000000000000000, -6.250000000000000900, 3.000000000000000000 ) ) ;
#43 = DIRECTION ( 'NONE',  ( 0.0000000000000000000, -0.0000000000000000000, 1.000000000000000000 ) ) ;
#44 = APPLICATION_CONTEXT ( 'configuration controlled 3d designs of mechanical parts and assemblies' ) ;
#45 = AXIS2_PLACEMENT_3D ( 'NONE', #167, #72, #185 ) ;
#46 = DIRECTION ( 'NONE',  ( 0.0000000000000000000, 1.000000000000000000, 0.0000000000000000000 ) ) ;
#47 = CARTESIAN_POINT ( 'NONE',  ( -8.750000000000000000, 6.249999999999999100, 0.0000000000000000000 ) ) ;
#48 = DIRECTION ( 'NONE',  ( -0.0000000000000000000, -0.0000000000000000000, -1.000000000000000000 ) ) ;
#49 = VERTEX_POINT ( 'NONE', #147 ) ;
#50 = EDGE_CURVE ( 'NONE', #156, #148, #194, .T. ) ;
#51 = MECHANICAL_CONTEXT ( 'NONE', #44, 'mechanical' ) ;
#52 = PERSON_AND_ORGANIZATION_ROLE ( 'design_owner' ) ;
#53 = ADVANCED_FACE ( 'NONE', ( #213 ), #220, .F. ) ;
#54 = VECTOR ( 'NONE', #221, 1000.000000000000000 ) ;
#55 = APPROVAL_DATE_TIME ( #183, #224 ) ;
#56 = EDGE_LOOP ( 'NONE', ( #23, #94, #99, #19 ) ) ;
#57 = DIRECTION ( 'NONE',  ( -1.110223024625156300E-015, -1.000000000000000000, 0.0000000000000000000 ) ) ;
#58 = ORIENTED_EDGE ( 'NONE', *, *, #118, .T. ) ;
#59 = CC_DESIGN_DATE_AND_TIME_ASSIGNMENT ( #236, #158, ( #60 ) ) ;
#60 = SECURITY_CLASSIFICATION ( '', '', #180 ) ;
#61 = PERSON_AND_ORGANIZATION ( #71, #217 ) ;
#62 = CARTESIAN_POINT ( 'NONE',  ( 8.750000000000014200, 6.249999999999999100, 3.000000000000000000 ) ) ;
#63 = DIRECTION ( 'NONE',  ( 1.000000000000000000, 0.0000000000000000000, 0.0000000000000000000 ) ) ;
#64 = CARTESIAN_POINT ( 'NONE',  ( 8.750000000000014200, 6.249999999999999100, 3.000000000000000000 ) ) ;
#65 = PERSON_AND_ORGANIZATION ( #71, #217 ) ;
#66 = CLOSED_SHELL ( 'NONE', ( #53, #163, #69, #92, #141, #14 ) ) ;
#67 = PERSON_AND_ORGANIZATION ( #71, #217 ) ;
#68 = VECTOR ( 'NONE', #37, 1000.000000000000000 ) ;
#69 = ADVANCED_FACE ( 'NONE', ( #83 ), #175, .F. ) ;
#70 = ORIENTED_EDGE ( 'NONE', *, *, #208, .T. ) ;
#71 = PERSON ( 'UNSPECIFIED', 'UNSPECIFIED', 'UNSPECIFIED', ('UNSPECIFIED'), ('UNSPECIFIED'), ('UNSPECIFIED') ) ;
#72 = DIRECTION ( 'NONE',  ( 1.000000000000000000, 0.0000000000000000000, -0.0000000000000000000 ) ) ;
#73 = VECTOR ( 'NONE', #2, 1000.000000000000000 ) ;
#74 =( NAMED_UNIT ( * ) SI_UNIT ( $, .STERADIAN. ) SOLID_ANGLE_UNIT ( ) );
#75 = AXIS2_PLACEMENT_3D ( 'NONE', #231, #115, #90 ) ;
#76 = PERSON_AND_ORGANIZATION ( #71, #217 ) ;
#77 = CARTESIAN_POINT ( 'NONE',  ( -8.750000000000000000, 6.249999999999999100, 3.000000000000000000 ) ) ;
#78 = VECTOR ( 'NONE', #177, 1000.000000000000000 ) ;
#79 = ORIENTED_EDGE ( 'NONE', *, *, #50, .F. ) ;
#80 = APPROVAL_ROLE ( '' ) ;
#81 = APPROVAL_DATE_TIME ( #206, #136 ) ;
#82 = PRODUCT_RELATED_PRODUCT_CATEGORY ( 'detail', '', ( #149 ) ) ;
#83 = FACE_OUTER_BOUND ( 'NONE', #151, .T. ) ;
#84 = EDGE_CURVE ( 'NONE', #123, #86, #124, .T. ) ;
#85 = LINE ( 'NONE', #152, #39 ) ;
#86 = VERTEX_POINT ( 'NONE', #128 ) ;
#87 = PRODUCT_DEFINITION ( 'UNKNOWN', '', #211, #202 ) ;
#88 = CARTESIAN_POINT ( 'NONE',  ( 0.0000000000000000000, 0.0000000000000000000, 0.0000000000000000000 ) ) ;
#89 = PERSON_AND_ORGANIZATION ( #71, #217 ) ;
#90 = DIRECTION ( 'NONE',  ( 1.000000000000000000, 0.0000000000000000000, 0.0000000000000000000 ) ) ;
#91 = ORIENTED_EDGE ( 'NONE', *, *, #50, .T. ) ;
#92 = ADVANCED_FACE ( 'NONE', ( #179 ), #101, .F. ) ;
#93 = DIRECTION ( 'NONE',  ( 1.000000000000000000, 0.0000000000000000000, 0.0000000000000000000 ) ) ;
#94 = ORIENTED_EDGE ( 'NONE', *, *, #195, .F. ) ;
#95 = ADVANCED_BREP_SHAPE_REPRESENTATION ( 'Web Model 68383', ( #107, #164 ), #30 ) ;
#96 = AXIS2_PLACEMENT_3D ( 'NONE', #29, #46, #43 ) ;
#97 = COORDINATED_UNIVERSAL_TIME_OFFSET ( 5, 0, .BEHIND. ) ;
#98 = LOCAL_TIME ( 14, 52, 55.00000000000000000, #105 ) ;
#99 = ORIENTED_EDGE ( 'NONE', *, *, #237, .F. ) ;
#100 = CALENDAR_DATE ( 2017, 31, 1 ) ;
#101 = PLANE ( 'NONE',  #96 ) ;
#102 = DIRECTION ( 'NONE',  ( 1.000000000000000000, 0.0000000000000000000, 0.0000000000000000000 ) ) ;
#103 = DIRECTION ( 'NONE',  ( -0.0000000000000000000, -0.0000000000000000000, -1.000000000000000000 ) ) ;
#104 = CARTESIAN_POINT ( 'NONE',  ( 8.750000000000014200, 6.249999999999999100, 0.0000000000000000000 ) ) ;
#105 = COORDINATED_UNIVERSAL_TIME_OFFSET ( 5, 0, .BEHIND. ) ;
#106 = EDGE_LOOP ( 'NONE', ( #210, #119, #130, #226 ) ) ;
#107 = MANIFOLD_SOLID_BREP ( 'Extrude1', #66 ) ;
#108 = LINE ( 'NONE', #144, #68 ) ;
#109 = DIRECTION ( 'NONE',  ( 0.0000000000000000000, -0.0000000000000000000, -1.000000000000000000 ) ) ;
#110 = CC_DESIGN_PERSON_AND_ORGANIZATION_ASSIGNMENT ( #169, #52, ( #149 ) ) ;
#111 = CC_DESIGN_PERSON_AND_ORGANIZATION_ASSIGNMENT ( #65, #142, ( #60 ) ) ;
#112 =( NAMED_UNIT ( * ) PLANE_ANGLE_UNIT ( ) SI_UNIT ( $, .RADIAN. ) );
#113 = VECTOR ( 'NONE', #12, 1000.000000000000000 ) ;
#114 = LINE ( 'NONE', #104, #54 ) ;
#115 = DIRECTION ( 'NONE',  ( -0.0000000000000000000, 0.0000000000000000000, 1.000000000000000000 ) ) ;
#116 = CC_DESIGN_APPROVAL ( #131, ( #60 ) ) ;
#117 = APPLICATION_CONTEXT ( 'configuration controlled 3d designs of mechanical parts and assemblies' ) ;
#118 = EDGE_CURVE ( 'NONE', #86, #8, #108, .T. ) ;
#119 = ORIENTED_EDGE ( 'NONE', *, *, #172, .T. ) ;
#120 = DATE_TIME_ROLE ( 'creation_date' ) ;
#121 = PERSON_AND_ORGANIZATION_ROLE ( 'design_supplier' ) ;
#122 = LINE ( 'NONE', #155, #184 ) ;
#123 = VERTEX_POINT ( 'NONE', #192 ) ;
#124 = LINE ( 'NONE', #222, #73 ) ;
#125 = CARTESIAN_POINT ( 'NONE',  ( 8.750000000000014200, 6.249999999999999100, 3.000000000000000000 ) ) ;
#126 = LOCAL_TIME ( 14, 52, 55.00000000000000000, #176 ) ;
#127 = LINE ( 'NONE', #47, #78 ) ;
#128 = CARTESIAN_POINT ( 'NONE',  ( 8.750000000000000000, -6.250000000000000900, 3.000000000000000000 ) ) ;
#129 = CARTESIAN_POINT ( 'NONE',  ( -8.750000000000000000, 6.249999999999999100, 3.000000000000000000 ) ) ;
#130 = ORIENTED_EDGE ( 'NONE', *, *, #228, .T. ) ;
#131 = APPROVAL ( #138, 'UNSPECIFIED' ) ;
#132 =( LENGTH_UNIT ( ) NAMED_UNIT ( * ) SI_UNIT ( .MILLI., .METRE. ) );
#133 = DIRECTION ( 'NONE',  ( 0.0000000000000000000, -1.000000000000000000, 0.0000000000000000000 ) ) ;
#134 = CARTESIAN_POINT ( 'NONE',  ( -8.750000000000000000, -6.250000000000000900, 0.0000000000000000000 ) ) ;
#135 = CARTESIAN_POINT ( 'NONE',  ( 8.750000000000014200, 6.249999999999999100, 0.0000000000000000000 ) ) ;
#136 = APPROVAL ( #235, 'UNSPECIFIED' ) ;
#137 = APPLICATION_PROTOCOL_DEFINITION ( 'international standard', 'config_control_design', 1994, #117 ) ;
#138 = APPROVAL_STATUS ( 'not_yet_approved' ) ;
#139 = PERSON_AND_ORGANIZATION_ROLE ( 'creator' ) ;
#140 = LINE ( 'NONE', #31, #113 ) ;
#141 = ADVANCED_FACE ( 'NONE', ( #35 ), #191, .T. ) ;
#142 = PERSON_AND_ORGANIZATION_ROLE ( 'classification_officer' ) ;
#143 = FACE_OUTER_BOUND ( 'NONE', #56, .T. ) ;
#144 = CARTESIAN_POINT ( 'NONE',  ( 8.750000000000000000, -6.250000000000000900, 3.000000000000000000 ) ) ;
#145 = ORIENTED_EDGE ( 'NONE', *, *, #227, .F. ) ;
#146 = UNCERTAINTY_MEASURE_WITH_UNIT (LENGTH_MEASURE( 1.000000000000000100E-005 ), #132, 'distance_accuracy_value', 'NONE');
#147 = CARTESIAN_POINT ( 'NONE',  ( -8.750000000000000000, -6.250000000000000900, 0.0000000000000000000 ) ) ;
#148 = VERTEX_POINT ( 'NONE', #232 ) ;
#149 = PRODUCT ( 'Web Model 68383', 'Web Model 68383', '', ( #51 ) ) ;
#150 = CALENDAR_DATE ( 2017, 31, 1 ) ;
#151 = EDGE_LOOP ( 'NONE', ( #40, #219, #161, #91 ) ) ;
#152 = CARTESIAN_POINT ( 'NONE',  ( -8.750000000000000000, 6.249999999999999100, 3.000000000000000000 ) ) ;
#153 = DIRECTION ( 'NONE',  ( 1.110223024625156500E-015, 1.000000000000000000, -0.0000000000000000000 ) ) ;
#154 = APPROVAL_DATE_TIME ( #223, #131 ) ;
#155 = CARTESIAN_POINT ( 'NONE',  ( 8.750000000000014200, 6.249999999999999100, 3.000000000000000000 ) ) ;
#156 = VERTEX_POINT ( 'NONE', #190 ) ;
#157 = CARTESIAN_POINT ( 'NONE',  ( -8.750000000000000000, 6.249999999999999100, 3.000000000000000000 ) ) ;
#158 = DATE_TIME_ROLE ( 'classification_date' ) ;
#159 = PRODUCT_DEFINITION_SHAPE ( 'NONE', 'NONE',  #87 ) ;
#160 = COORDINATED_UNIVERSAL_TIME_OFFSET ( 5, 0, .BEHIND. ) ;
#161 = ORIENTED_EDGE ( 'NONE', *, *, #228, .F. ) ;
#162 = PERSON_AND_ORGANIZATION_ROLE ( 'creator' ) ;
#163 = ADVANCED_FACE ( 'NONE', ( #233 ), #26, .F. ) ;
#164 = AXIS2_PLACEMENT_3D ( 'NONE', #88, #27, #93 ) ;
#165 = ORIENTED_EDGE ( 'NONE', *, *, #118, .F. ) ;
#166 = DIRECTION ( 'NONE',  ( -0.0000000000000000000, -0.0000000000000000000, -1.000000000000000000 ) ) ;
#167 = CARTESIAN_POINT ( 'NONE',  ( -8.750000000000000000, 6.249999999999999100, 3.000000000000000000 ) ) ;
#168 = PLANE ( 'NONE',  #16 ) ;
#169 = PERSON_AND_ORGANIZATION ( #71, #217 ) ;
#170 = ORIENTED_EDGE ( 'NONE', *, *, #227, .T. ) ;
#171 = ORIENTED_EDGE ( 'NONE', *, *, #84, .F. ) ;
#172 = EDGE_CURVE ( 'NONE', #33, #156, #15, .T. ) ;
#173 = AXIS2_PLACEMENT_3D ( 'NONE', #157, #7, #109 ) ;
#174 = CC_DESIGN_SECURITY_CLASSIFICATION ( #60, ( #211 ) ) ;
#175 = PLANE ( 'NONE',  #45 ) ;
#176 = COORDINATED_UNIVERSAL_TIME_OFFSET ( 5, 0, .BEHIND. ) ;
#177 = DIRECTION ( 'NONE',  ( 0.0000000000000000000, -1.000000000000000000, 0.0000000000000000000 ) ) ;
#178 = CC_DESIGN_APPROVAL ( #136, ( #87 ) ) ;
#179 = FACE_OUTER_BOUND ( 'NONE', #205, .T. ) ;
#180 = SECURITY_CLASSIFICATION_LEVEL ( 'unclassified' ) ;
#181 = SHAPE_DEFINITION_REPRESENTATION ( #159, #95 ) ;
#182 = ORIENTED_EDGE ( 'NONE', *, *, #24, .T. ) ;
#183 = DATE_AND_TIME ( #216, #126 ) ;
#184 = VECTOR ( 'NONE', #48, 1000.000000000000000 ) ;
#185 = DIRECTION ( 'NONE',  ( -0.0000000000000000000, 0.0000000000000000000, -1.000000000000000000 ) ) ;
#186 = DIRECTION ( 'NONE',  ( -1.000000000000000000, 1.110223024625156300E-015, 0.0000000000000000000 ) ) ;
#187 = LINE ( 'NONE', #134, #225 ) ;
#188 = VECTOR ( 'NONE', #103, 1000.000000000000000 ) ;
#189 = CC_DESIGN_PERSON_AND_ORGANIZATION_ASSIGNMENT ( #61, #139, ( #87 ) ) ;
#190 = CARTESIAN_POINT ( 'NONE',  ( -8.750000000000000000, 6.249999999999999100, 3.000000000000000000 ) ) ;
#191 = PLANE ( 'NONE',  #75 ) ;
#192 = CARTESIAN_POINT ( 'NONE',  ( -8.750000000000000000, -6.250000000000000900, 3.000000000000000000 ) ) ;
#193 = APPROVAL_PERSON_ORGANIZATION ( #76, #131, #80 ) ;
#194 = LINE ( 'NONE', #129, #188 ) ;
#195 = EDGE_CURVE ( 'NONE', #49, #8, #187, .T. ) ;
#196 = ORIENTED_EDGE ( 'NONE', *, *, #172, .F. ) ;
#197 = APPROVAL_STATUS ( 'not_yet_approved' ) ;
#198 = APPROVAL_PERSON_ORGANIZATION ( #21, #136, #32 ) ;
#199 = CC_DESIGN_DATE_AND_TIME_ASSIGNMENT ( #20, #120, ( #87 ) ) ;
#200 = CARTESIAN_POINT ( 'NONE',  ( 8.750000000000000000, -6.250000000000000900, 0.0000000000000000000 ) ) ;
#201 = ORIENTED_EDGE ( 'NONE', *, *, #5, .T. ) ;
#202 = DESIGN_CONTEXT ( 'detailed design', #117, 'design' ) ;
#203 = LOCAL_TIME ( 14, 52, 55.00000000000000000, #160 ) ;
#204 = VECTOR ( 'NONE', #209, 1000.000000000000000 ) ;
#205 = EDGE_LOOP ( 'NONE', ( #28, #165, #171, #182 ) ) ;
#206 = DATE_AND_TIME ( #10, #98 ) ;
#207 = VERTEX_POINT ( 'NONE', #135 ) ;
#208 = EDGE_CURVE ( 'NONE', #207, #148, #140, .T. ) ;
#209 = DIRECTION ( 'NONE',  ( -1.000000000000000000, -0.0000000000000000000, -0.0000000000000000000 ) ) ;
#210 = ORIENTED_EDGE ( 'NONE', *, *, #214, .T. ) ;
#211 = PRODUCT_DEFINITION_FORMATION_WITH_SPECIFIED_SOURCE ( 'ANY', '', #149, .NOT_KNOWN. ) ;
#212 = LOCAL_TIME ( 14, 52, 55.00000000000000000, #6 ) ;
#213 = FACE_OUTER_BOUND ( 'NONE', #11, .T. ) ;
#214 = EDGE_CURVE ( 'NONE', #86, #33, #230, .T. ) ;
#215 = APPROVAL_ROLE ( '' ) ;
#216 = CALENDAR_DATE ( 2017, 31, 1 ) ;
#217 = ORGANIZATION ( 'UNSPECIFIED', 'UNSPECIFIED', '' ) ;
#218 = ORIENTED_EDGE ( 'NONE', *, *, #214, .F. ) ;
#219 = ORIENTED_EDGE ( 'NONE', *, *, #24, .F. ) ;
#220 = PLANE ( 'NONE',  #41 ) ;
#221 = DIRECTION ( 'NONE',  ( 1.110223024625156500E-015, 1.000000000000000000, -0.0000000000000000000 ) ) ;
#222 = CARTESIAN_POINT ( 'NONE',  ( -8.750000000000000000, -6.250000000000000900, 3.000000000000000000 ) ) ;
#223 = DATE_AND_TIME ( #100, #203 ) ;
#224 = APPROVAL ( #197, 'UNSPECIFIED' ) ;
#225 = VECTOR ( 'NONE', #63, 1000.000000000000000 ) ;
#226 = ORIENTED_EDGE ( 'NONE', *, *, #84, .T. ) ;
#227 = EDGE_CURVE ( 'NONE', #33, #207, #122, .T. ) ;
#228 = EDGE_CURVE ( 'NONE', #156, #123, #85, .T. ) ;
#229 = APPROVAL_PERSON_ORGANIZATION ( #89, #224, #215 ) ;
#230 = LINE ( 'NONE', #64, #3 ) ;
#231 = CARTESIAN_POINT ( 'NONE',  ( 8.750000000000000000, -6.250000000000000900, 3.000000000000000000 ) ) ;
#232 = CARTESIAN_POINT ( 'NONE',  ( -8.750000000000000000, 6.249999999999999100, 0.0000000000000000000 ) ) ;
#233 = FACE_OUTER_BOUND ( 'NONE', #234, .T. ) ;
#234 = EDGE_LOOP ( 'NONE', ( #70, #79, #196, #170 ) ) ;
#235 = APPROVAL_STATUS ( 'not_yet_approved' ) ;
#236 = DATE_AND_TIME ( #150, #212 ) ;
#237 = EDGE_CURVE ( 'NONE', #148, #49, #127, .T. ) ;
ENDSEC;
END-ISO-10303-21;
