ISO-10303-21;
HEADER;
FILE_DESCRIPTION (( 'STEP AP203' ),
    '1' );
FILE_NAME ('Web Model 15741_15744.step',
    '2020-10-19T15:33:12',
    ( '' ),
    ( '' ),
    'SwSTEP 2.0',
    'SolidWorks 2018',
    '' );
FILE_SCHEMA (( 'CONFIG_CONTROL_DESIGN' ));
ENDSEC;

DATA;
#1 = LINE ( 'NONE', #84, #164 ) ;
#2 = VERTEX_POINT ( 'NONE', #174 ) ;
#3 = COORDINATED_UNIVERSAL_TIME_OFFSET ( 5, 0, .BEHIND. ) ;
#4 = ORIENTED_EDGE ( 'NONE', *, *, #200, .T. ) ;
#5 = ADVANCED_FACE ( 'NONE', ( #22 ), #88, .F. ) ;
#6 = CC_DESIGN_DATE_AND_TIME_ASSIGNMENT ( #62, #172, ( #196 ) ) ;
#7 = DIRECTION ( 'NONE',  ( 0.0000000000000000000, 0.0000000000000000000, 1.000000000000000000 ) ) ;
#8 = CARTESIAN_POINT ( 'NONE',  ( 25.00000000000000000, -12.49999999999999822, 3.000000000000000000 ) ) ;
#9 = CARTESIAN_POINT ( 'NONE',  ( -25.00000000000000000, 12.50000000000000000, 3.000000000000000000 ) ) ;
#10 = CC_DESIGN_PERSON_AND_ORGANIZATION_ASSIGNMENT ( #55, #117, ( #127 ) ) ;
#11 = ORIENTED_EDGE ( 'NONE', *, *, #143, .T. ) ;
#12 = EDGE_CURVE ( 'NONE', #105, #56, #192, .T. ) ;
#13 = CARTESIAN_POINT ( 'NONE',  ( 25.00000000000000000, -12.49999999999999822, -3.000000000000000000 ) ) ;
#14 = CALENDAR_DATE ( 2020, 19, 10 ) ;
#15 = ORIENTED_EDGE ( 'NONE', *, *, #231, .T. ) ;
#16 = LINE ( 'NONE', #48, #95 ) ;
#17 = PERSON_AND_ORGANIZATION ( #89, #132 ) ;
#18 = APPROVAL ( #191, 'UNSPECIFIED' ) ;
#19 = PERSON_AND_ORGANIZATION ( #89, #132 ) ;
#20 = ORIENTED_EDGE ( 'NONE', *, *, #32, .T. ) ;
#21 = CC_DESIGN_DATE_AND_TIME_ASSIGNMENT ( #197, #80, ( #127 ) ) ;
#22 = FACE_OUTER_BOUND ( 'NONE', #199, .T. ) ;
#23 = DIRECTION ( 'NONE',  ( -1.000000000000000000, -1.040834085586084257E-16, 0.0000000000000000000 ) ) ;
#24 = EDGE_CURVE ( 'NONE', #56, #115, #16, .T. ) ;
#25 = DIRECTION ( 'NONE',  ( 0.0000000000000000000, -0.0000000000000000000, 1.000000000000000000 ) ) ;
#26 = PERSON_AND_ORGANIZATION_ROLE ( 'design_owner' ) ;
#27 = CARTESIAN_POINT ( 'NONE',  ( -25.00000000000000000, -12.50000000000000000, 3.000000000000000000 ) ) ;
#28 = PLANE ( 'NONE',  #61 ) ;
#29 = ORIENTED_EDGE ( 'NONE', *, *, #91, .F. ) ;
#30 = PERSON_AND_ORGANIZATION_ROLE ( 'creator' ) ;
#31 = DIRECTION ( 'NONE',  ( -0.0000000000000000000, -0.0000000000000000000, -1.000000000000000000 ) ) ;
#32 = EDGE_CURVE ( 'NONE', #77, #115, #219, .T. ) ;
#33 = CARTESIAN_POINT ( 'NONE',  ( 25.00000000000000000, -12.49999999999999822, 3.000000000000000000 ) ) ;
#34 = DIRECTION ( 'NONE',  ( 1.000000000000000000, 3.469446951953614189E-17, -0.0000000000000000000 ) ) ;
#35 = DIRECTION ( 'NONE',  ( -0.0000000000000000000, -0.0000000000000000000, -1.000000000000000000 ) ) ;
#36 = ORIENTED_EDGE ( 'NONE', *, *, #200, .F. ) ;
#37 = DATE_AND_TIME ( #14, #82 ) ;
#38 = VECTOR ( 'NONE', #181, 1000.000000000000000 ) ;
#39 = CC_DESIGN_PERSON_AND_ORGANIZATION_ASSIGNMENT ( #17, #30, ( #134 ) ) ;
#40 = APPROVAL_DATE_TIME ( #145, #18 ) ;
#41 = LINE ( 'NONE', #13, #185 ) ;
#42 = ADVANCED_FACE ( 'NONE', ( #169 ), #28, .F. ) ;
#43 = EDGE_LOOP ( 'NONE', ( #4, #11, #237, #15 ) ) ;
#44 = DIRECTION ( 'NONE',  ( 1.000000000000000000, 0.0000000000000000000, 0.0000000000000000000 ) ) ;
#45 = APPLICATION_PROTOCOL_DEFINITION ( 'international standard', 'config_control_design', 1994, #101 ) ;
#46 = VECTOR ( 'NONE', #23, 1000.000000000000000 ) ;
#47 = VECTOR ( 'NONE', #102, 1000.000000000000000 ) ;
#48 = CARTESIAN_POINT ( 'NONE',  ( -25.00000000000000000, -12.50000000000000000, -3.000000000000000000 ) ) ;
#49 = PLANE ( 'NONE',  #149 ) ;
#50 = CC_DESIGN_SECURITY_CLASSIFICATION ( #127, ( #134 ) ) ;
#51 = CARTESIAN_POINT ( 'NONE',  ( -25.00000000000000000, 12.50000000000000000, -3.000000000000000000 ) ) ;
#52 = ORIENTED_EDGE ( 'NONE', *, *, #24, .T. ) ;
#53 = PERSON_AND_ORGANIZATION ( #89, #132 ) ;
#54 = EDGE_CURVE ( 'NONE', #67, #105, #129, .T. ) ;
#55 = PERSON_AND_ORGANIZATION ( #89, #132 ) ;
#56 = VERTEX_POINT ( 'NONE', #51 ) ;
#57 = VECTOR ( 'NONE', #141, 1000.000000000000000 ) ;
#58 = ORIENTED_EDGE ( 'NONE', *, *, #183, .F. ) ;
#59 = LINE ( 'NONE', #33, #38 ) ;
#60 = PRODUCT_DEFINITION_SHAPE ( 'NONE', 'NONE',  #196 ) ;
#61 = AXIS2_PLACEMENT_3D ( 'NONE', #27, #122, #71 ) ;
#62 = DATE_AND_TIME ( #109, #206 ) ;
#63 = DIRECTION ( 'NONE',  ( -3.469446951953613573E-17, 1.000000000000000000, 0.0000000000000000000 ) ) ;
#64 = APPROVAL_ROLE ( '' ) ;
#65 =( NAMED_UNIT ( * ) SI_UNIT ( $, .STERADIAN. ) SOLID_ANGLE_UNIT ( ) );
#66 = CARTESIAN_POINT ( 'NONE',  ( -25.00000000000000000, -12.50000000000000000, 3.000000000000000000 ) ) ;
#67 = VERTEX_POINT ( 'NONE', #69 ) ;
#68 = VECTOR ( 'NONE', #31, 1000.000000000000000 ) ;
#69 = CARTESIAN_POINT ( 'NONE',  ( 24.99999999999999645, 12.50000000000000533, 3.000000000000000000 ) ) ;
#70 = CARTESIAN_POINT ( 'NONE',  ( 24.99999999999999645, 12.50000000000000533, -3.000000000000000000 ) ) ;
#71 = DIRECTION ( 'NONE',  ( 0.0000000000000000000, 0.0000000000000000000, -1.000000000000000000 ) ) ;
#72 = CARTESIAN_POINT ( 'NONE',  ( 24.99999999999999645, 12.50000000000000533, 3.000000000000000000 ) ) ;
#73 = CLOSED_SHELL ( 'NONE', ( #42, #204, #112, #189, #224, #5 ) ) ;
#74 = ORIENTED_EDGE ( 'NONE', *, *, #183, .T. ) ;
#75 = EDGE_LOOP ( 'NONE', ( #176, #29, #124, #20 ) ) ;
#76 = FACE_OUTER_BOUND ( 'NONE', #75, .T. ) ;
#77 = VERTEX_POINT ( 'NONE', #159 ) ;
#78 = AXIS2_PLACEMENT_3D ( 'NONE', #130, #25, #151 ) ;
#79 = APPLICATION_PROTOCOL_DEFINITION ( 'international standard', 'config_control_design', 1994, #194 ) ;
#80 = DATE_TIME_ROLE ( 'classification_date' ) ;
#81 = APPROVAL_STATUS ( 'not_yet_approved' ) ;
#82 = LOCAL_TIME ( 11, 33, 12.00000000000000000, #153 ) ;
#83 = VECTOR ( 'NONE', #139, 1000.000000000000000 ) ;
#84 = CARTESIAN_POINT ( 'NONE',  ( 25.00000000000000000, -12.49999999999999822, 3.000000000000000000 ) ) ;
#85 = APPROVAL_DATE_TIME ( #121, #167 ) ;
#86 =( GEOMETRIC_REPRESENTATION_CONTEXT ( 3 ) GLOBAL_UNCERTAINTY_ASSIGNED_CONTEXT ( ( #148 ) ) GLOBAL_UNIT_ASSIGNED_CONTEXT ( ( #150, #221, #65 ) ) REPRESENTATION_CONTEXT ( 'NONE', 'WORKASPACE' ) );
#87 = CARTESIAN_POINT ( 'NONE',  ( 25.00000000000000000, -12.49999999999999822, 3.000000000000000000 ) ) ;
#88 = PLANE ( 'NONE',  #78 ) ;
#89 = PERSON ( 'UNSPECIFIED', 'UNSPECIFIED', 'UNSPECIFIED', ('UNSPECIFIED'), ('UNSPECIFIED'), ('UNSPECIFIED') ) ;
#90 = CARTESIAN_POINT ( 'NONE',  ( 24.99999999999999645, 12.50000000000000533, 3.000000000000000000 ) ) ;
#91 = EDGE_CURVE ( 'NONE', #144, #104, #59, .T. ) ;
#92 = PERSON_AND_ORGANIZATION ( #89, #132 ) ;
#93 = VECTOR ( 'NONE', #35, 1000.000000000000000 ) ;
#94 = MANIFOLD_SOLID_BREP ( 'Boss-Extrude1', #73 ) ;
#95 = VECTOR ( 'NONE', #229, 1000.000000000000000 ) ;
#96 = LOCAL_TIME ( 11, 33, 12.00000000000000000, #113 ) ;
#97 = APPROVAL_ROLE ( '' ) ;
#98 = FACE_OUTER_BOUND ( 'NONE', #43, .T. ) ;
#99 = DIRECTION ( 'NONE',  ( -1.000000000000000000, -1.387778780781445429E-16, 0.0000000000000000000 ) ) ;
#100 = LOCAL_TIME ( 11, 33, 12.00000000000000000, #179 ) ;
#101 = APPLICATION_CONTEXT ( 'configuration controlled 3d designs of mechanical parts and assemblies' ) ;
#102 = DIRECTION ( 'NONE',  ( 1.000000000000000000, 3.469446951953614189E-17, -0.0000000000000000000 ) ) ;
#103 = DIRECTION ( 'NONE',  ( 1.000000000000000000, 0.0000000000000000000, -0.0000000000000000000 ) ) ;
#104 = VERTEX_POINT ( 'NONE', #227 ) ;
#105 = VERTEX_POINT ( 'NONE', #161 ) ;
#106 = PERSON_AND_ORGANIZATION ( #89, #132 ) ;
#107 = VECTOR ( 'NONE', #118, 1000.000000000000000 ) ;
#108 = CALENDAR_DATE ( 2020, 19, 10 ) ;
#109 = CALENDAR_DATE ( 2020, 19, 10 ) ;
#110 = ORIENTED_EDGE ( 'NONE', *, *, #24, .F. ) ;
#111 = ORIENTED_EDGE ( 'NONE', *, *, #203, .F. ) ;
#112 = ADVANCED_FACE ( 'NONE', ( #187 ), #195, .F. ) ;
#113 = COORDINATED_UNIVERSAL_TIME_OFFSET ( 5, 0, .BEHIND. ) ;
#114 = CC_DESIGN_PERSON_AND_ORGANIZATION_ASSIGNMENT ( #216, #228, ( #134 ) ) ;
#115 = VERTEX_POINT ( 'NONE', #230 ) ;
#116 = CARTESIAN_POINT ( 'NONE',  ( 24.99999999999999645, 12.50000000000000533, 3.000000000000000000 ) ) ;
#117 = PERSON_AND_ORGANIZATION_ROLE ( 'classification_officer' ) ;
#118 = DIRECTION ( 'NONE',  ( -1.387778780781445429E-16, 1.000000000000000000, 0.0000000000000000000 ) ) ;
#119 = ORIENTED_EDGE ( 'NONE', *, *, #231, .F. ) ;
#120 = EDGE_LOOP ( 'NONE', ( #138, #147, #111, #201 ) ) ;
#121 = DATE_AND_TIME ( #193, #222 ) ;
#122 = DIRECTION ( 'NONE',  ( 1.000000000000000000, 0.0000000000000000000, 0.0000000000000000000 ) ) ;
#123 = CC_DESIGN_APPROVAL ( #165, ( #196 ) ) ;
#124 = ORIENTED_EDGE ( 'NONE', *, *, #143, .F. ) ;
#125 = COORDINATED_UNIVERSAL_TIME_OFFSET ( 5, 0, .BEHIND. ) ;
#126 = ORIENTED_EDGE ( 'NONE', *, *, #12, .T. ) ;
#127 = SECURITY_CLASSIFICATION ( '', '', #156 ) ;
#128 = APPROVAL_PERSON_ORGANIZATION ( #19, #165, #64 ) ;
#129 = LINE ( 'NONE', #90, #83 ) ;
#130 = CARTESIAN_POINT ( 'NONE',  ( 0.0000000000000000000, 0.0000000000000000000, -3.000000000000000000 ) ) ;
#131 = CC_DESIGN_PERSON_AND_ORGANIZATION_ASSIGNMENT ( #92, #26, ( #162 ) ) ;
#132 = ORGANIZATION ( 'UNSPECIFIED', 'UNSPECIFIED', '' ) ;
#133 = LINE ( 'NONE', #9, #93 ) ;
#134 = PRODUCT_DEFINITION_FORMATION_WITH_SPECIFIED_SOURCE ( 'ANY', '', #162, .NOT_KNOWN. ) ;
#135 = SHAPE_DEFINITION_REPRESENTATION ( #60, #160 ) ;
#136 = CARTESIAN_POINT ( 'NONE',  ( 25.00000000000000000, -12.49999999999999822, 3.000000000000000000 ) ) ;
#137 = CARTESIAN_POINT ( 'NONE',  ( 25.00000000000000000, -12.49999999999999822, -3.000000000000000000 ) ) ;
#138 = ORIENTED_EDGE ( 'NONE', *, *, #171, .T. ) ;
#139 = DIRECTION ( 'NONE',  ( -0.0000000000000000000, -0.0000000000000000000, -1.000000000000000000 ) ) ;
#140 = PRODUCT_RELATED_PRODUCT_CATEGORY ( 'detail', '', ( #162 ) ) ;
#141 = DIRECTION ( 'NONE',  ( -0.0000000000000000000, -1.000000000000000000, -0.0000000000000000000 ) ) ;
#142 = LINE ( 'NONE', #182, #47 ) ;
#143 = EDGE_CURVE ( 'NONE', #77, #144, #142, .T. ) ;
#144 = VERTEX_POINT ( 'NONE', #136 ) ;
#145 = DATE_AND_TIME ( #108, #100 ) ;
#146 = CC_DESIGN_APPROVAL ( #18, ( #134 ) ) ;
#147 = ORIENTED_EDGE ( 'NONE', *, *, #54, .F. ) ;
#148 = UNCERTAINTY_MEASURE_WITH_UNIT (LENGTH_MEASURE( 1.000000000000000082E-05 ), #150, 'distance_accuracy_value', 'NONE');
#149 = AXIS2_PLACEMENT_3D ( 'NONE', #8, #63, #155 ) ;
#150 =( LENGTH_UNIT ( ) NAMED_UNIT ( * ) SI_UNIT ( .MILLI., .METRE. ) );
#151 = DIRECTION ( 'NONE',  ( 1.000000000000000000, 0.0000000000000000000, -0.0000000000000000000 ) ) ;
#152 = PLANE ( 'NONE',  #220 ) ;
#153 = COORDINATED_UNIVERSAL_TIME_OFFSET ( 5, 0, .BEHIND. ) ;
#154 = DIRECTION ( 'NONE',  ( -1.000000000000000000, -1.040834085586084257E-16, 0.0000000000000000000 ) ) ;
#155 = DIRECTION ( 'NONE',  ( -1.000000000000000000, -3.469446951953613573E-17, 0.0000000000000000000 ) ) ;
#156 = SECURITY_CLASSIFICATION_LEVEL ( 'unclassified' ) ;
#157 = ORIENTED_EDGE ( 'NONE', *, *, #54, .T. ) ;
#158 = ORIENTED_EDGE ( 'NONE', *, *, #32, .F. ) ;
#159 = CARTESIAN_POINT ( 'NONE',  ( -25.00000000000000000, -12.50000000000000000, 3.000000000000000000 ) ) ;
#160 = ADVANCED_BREP_SHAPE_REPRESENTATION ( 'Web Model 15741_15744', ( #94, #173 ), #86 ) ;
#161 = CARTESIAN_POINT ( 'NONE',  ( 24.99999999999999645, 12.50000000000000533, -3.000000000000000000 ) ) ;
#162 = PRODUCT ( 'Web Model 15741_15744', 'Web Model 15741_15744', '', ( #205 ) ) ;
#163 = PLANE ( 'NONE',  #223 ) ;
#164 = VECTOR ( 'NONE', #208, 1000.000000000000000 ) ;
#165 = APPROVAL ( #81, 'UNSPECIFIED' ) ;
#166 = DESIGN_CONTEXT ( 'detailed design', #101, 'design' ) ;
#167 = APPROVAL ( #207, 'UNSPECIFIED' ) ;
#168 = ORIENTED_EDGE ( 'NONE', *, *, #171, .F. ) ;
#169 = FACE_OUTER_BOUND ( 'NONE', #170, .T. ) ;
#170 = EDGE_LOOP ( 'NONE', ( #52, #158, #36, #74 ) ) ;
#171 = EDGE_CURVE ( 'NONE', #104, #105, #202, .T. ) ;
#172 = DATE_TIME_ROLE ( 'creation_date' ) ;
#173 = AXIS2_PLACEMENT_3D ( 'NONE', #190, #7, #44 ) ;
#174 = CARTESIAN_POINT ( 'NONE',  ( -25.00000000000000000, 12.50000000000000000, 3.000000000000000000 ) ) ;
#175 = CARTESIAN_POINT ( 'NONE',  ( 0.0000000000000000000, 0.0000000000000000000, 3.000000000000000000 ) ) ;
#176 = ORIENTED_EDGE ( 'NONE', *, *, #186, .T. ) ;
#177 = CC_DESIGN_APPROVAL ( #167, ( #127 ) ) ;
#178 = APPROVAL_DATE_TIME ( #37, #165 ) ;
#179 = COORDINATED_UNIVERSAL_TIME_OFFSET ( 5, 0, .BEHIND. ) ;
#180 = APPROVAL_ROLE ( '' ) ;
#181 = DIRECTION ( 'NONE',  ( -0.0000000000000000000, -0.0000000000000000000, -1.000000000000000000 ) ) ;
#182 = CARTESIAN_POINT ( 'NONE',  ( 25.00000000000000000, -12.49999999999999822, 3.000000000000000000 ) ) ;
#183 = EDGE_CURVE ( 'NONE', #2, #56, #133, .T. ) ;
#184 = CALENDAR_DATE ( 2020, 19, 10 ) ;
#185 = VECTOR ( 'NONE', #34, 1000.000000000000000 ) ;
#186 = EDGE_CURVE ( 'NONE', #115, #104, #41, .T. ) ;
#187 = FACE_OUTER_BOUND ( 'NONE', #120, .T. ) ;
#188 = APPROVAL_PERSON_ORGANIZATION ( #53, #167, #97 ) ;
#189 = ADVANCED_FACE ( 'NONE', ( #214 ), #163, .F. ) ;
#190 = CARTESIAN_POINT ( 'NONE',  ( 0.0000000000000000000, 0.0000000000000000000, 0.0000000000000000000 ) ) ;
#191 = APPROVAL_STATUS ( 'not_yet_approved' ) ;
#192 = LINE ( 'NONE', #70, #210 ) ;
#193 = CALENDAR_DATE ( 2020, 19, 10 ) ;
#194 = APPLICATION_CONTEXT ( 'configuration controlled 3d designs of mechanical parts and assemblies' ) ;
#195 = PLANE ( 'NONE',  #209 ) ;
#196 = PRODUCT_DEFINITION ( 'UNKNOWN', '', #134, #166 ) ;
#197 = DATE_AND_TIME ( #184, #96 ) ;
#198 = LINE ( 'NONE', #233, #57 ) ;
#199 = EDGE_LOOP ( 'NONE', ( #110, #234, #168, #217 ) ) ;
#200 = EDGE_CURVE ( 'NONE', #2, #77, #198, .T. ) ;
#201 = ORIENTED_EDGE ( 'NONE', *, *, #91, .T. ) ;
#202 = LINE ( 'NONE', #137, #107 ) ;
#203 = EDGE_CURVE ( 'NONE', #144, #67, #1, .T. ) ;
#204 = ADVANCED_FACE ( 'NONE', ( #76 ), #49, .F. ) ;
#205 = MECHANICAL_CONTEXT ( 'NONE', #194, 'mechanical' ) ;
#206 = LOCAL_TIME ( 11, 33, 12.00000000000000000, #125 ) ;
#207 = APPROVAL_STATUS ( 'not_yet_approved' ) ;
#208 = DIRECTION ( 'NONE',  ( -1.387778780781445429E-16, 1.000000000000000000, 0.0000000000000000000 ) ) ;
#209 = AXIS2_PLACEMENT_3D ( 'NONE', #87, #99, #212 ) ;
#210 = VECTOR ( 'NONE', #154, 1000.000000000000000 ) ;
#211 = DIRECTION ( 'NONE',  ( 0.0000000000000000000, -0.0000000000000000000, 1.000000000000000000 ) ) ;
#212 = DIRECTION ( 'NONE',  ( 1.387778780781445429E-16, -1.000000000000000000, 0.0000000000000000000 ) ) ;
#213 = DIRECTION ( 'NONE',  ( 1.000000000000000000, 1.040834085586084133E-16, 0.0000000000000000000 ) ) ;
#214 = FACE_OUTER_BOUND ( 'NONE', #215, .T. ) ;
#215 = EDGE_LOOP ( 'NONE', ( #126, #58, #119, #157 ) ) ;
#216 = PERSON_AND_ORGANIZATION ( #89, #132 ) ;
#217 = ORIENTED_EDGE ( 'NONE', *, *, #186, .F. ) ;
#218 = LINE ( 'NONE', #116, #46 ) ;
#219 = LINE ( 'NONE', #66, #68 ) ;
#220 = AXIS2_PLACEMENT_3D ( 'NONE', #175, #211, #103 ) ;
#221 =( NAMED_UNIT ( * ) PLANE_ANGLE_UNIT ( ) SI_UNIT ( $, .RADIAN. ) );
#222 = LOCAL_TIME ( 11, 33, 12.00000000000000000, #3 ) ;
#223 = AXIS2_PLACEMENT_3D ( 'NONE', #72, #232, #213 ) ;
#224 = ADVANCED_FACE ( 'NONE', ( #98 ), #152, .T. ) ;
#225 = PERSON_AND_ORGANIZATION_ROLE ( 'creator' ) ;
#226 = APPROVAL_PERSON_ORGANIZATION ( #235, #18, #180 ) ;
#227 = CARTESIAN_POINT ( 'NONE',  ( 25.00000000000000000, -12.49999999999999822, -3.000000000000000000 ) ) ;
#228 = PERSON_AND_ORGANIZATION_ROLE ( 'design_supplier' ) ;
#229 = DIRECTION ( 'NONE',  ( -0.0000000000000000000, -1.000000000000000000, -0.0000000000000000000 ) ) ;
#230 = CARTESIAN_POINT ( 'NONE',  ( -25.00000000000000000, -12.50000000000000000, -3.000000000000000000 ) ) ;
#231 = EDGE_CURVE ( 'NONE', #67, #2, #218, .T. ) ;
#232 = DIRECTION ( 'NONE',  ( 1.040834085586084133E-16, -1.000000000000000000, 0.0000000000000000000 ) ) ;
#233 = CARTESIAN_POINT ( 'NONE',  ( -25.00000000000000000, -12.50000000000000000, 3.000000000000000000 ) ) ;
#234 = ORIENTED_EDGE ( 'NONE', *, *, #12, .F. ) ;
#235 = PERSON_AND_ORGANIZATION ( #89, #132 ) ;
#236 = CC_DESIGN_PERSON_AND_ORGANIZATION_ASSIGNMENT ( #106, #225, ( #196 ) ) ;
#237 = ORIENTED_EDGE ( 'NONE', *, *, #203, .T. ) ;
ENDSEC;
END-ISO-10303-21;
