ISO-10303-21;
HEADER;
FILE_DESCRIPTION (( 'STEP AP203' ),
    '1' );
FILE_NAME ('Web Model 45569_39301.step',
    '2019-01-07T15:34:57',
    ( '' ),
    ( '' ),
    'SwSTEP 2.0',
    'SolidWorks 2016',
    '' );
FILE_SCHEMA (( 'CONFIG_CONTROL_DESIGN' ));
ENDSEC;

DATA;
#1 = COORDINATED_UNIVERSAL_TIME_OFFSET ( 5, 0, .BEHIND. ) ;
#2 = DATE_AND_TIME ( #129, #32 ) ;
#3 = CARTESIAN_POINT ( 'NONE',  ( 15.00000000000000000, 1.836970198721029600E-015, -1.500000000000000000 ) ) ;
#4 = PLANE ( 'NONE',  #46 ) ;
#5 = ORIENTED_EDGE ( 'NONE', *, *, #49, .T. ) ;
#6 = CARTESIAN_POINT ( 'NONE',  ( 0.0000000000000000000, 0.0000000000000000000, 1.500000000000000000 ) ) ;
#7 = CC_DESIGN_PERSON_AND_ORGANIZATION_ASSIGNMENT ( #8, #86, ( #62 ) ) ;
#8 = PERSON_AND_ORGANIZATION ( #167, #110 ) ;
#9 = APPLICATION_CONTEXT ( 'configuration controlled 3d designs of mechanical parts and assemblies' ) ;
#10 = APPROVAL_STATUS ( 'not_yet_approved' ) ;
#11 = APPROVAL_STATUS ( 'not_yet_approved' ) ;
#12 = CALENDAR_DATE ( 2019, 7, 1 ) ;
#13 = UNCERTAINTY_MEASURE_WITH_UNIT (LENGTH_MEASURE( 1.000000000000000100E-005 ), #70, 'distance_accuracy_value', 'NONE');
#14 = PERSON_AND_ORGANIZATION ( #167, #110 ) ;
#15 = LOCAL_TIME ( 10, 34, 57.00000000000000000, #66 ) ;
#16 = CYLINDRICAL_SURFACE ( 'NONE', #17, 15.00000000000000000 ) ;
#17 = AXIS2_PLACEMENT_3D ( 'NONE', #125, #154, #82 ) ;
#18 = DATE_AND_TIME ( #175, #28 ) ;
#19 = CARTESIAN_POINT ( 'NONE',  ( 15.00000000000000000, 1.836970198721029600E-015, 1.500000000000000000 ) ) ;
#20 = APPLICATION_PROTOCOL_DEFINITION ( 'international standard', 'config_control_design', 1994, #9 ) ;
#21 = VERTEX_POINT ( 'NONE', #153 ) ;
#22 = MANIFOLD_SOLID_BREP ( 'Boss-Extrude1', #50 ) ;
#23 = EDGE_LOOP ( 'NONE', ( #30, #87, #42, #79 ) ) ;
#24 = EDGE_CURVE ( 'NONE', #130, #75, #45, .T. ) ;
#25 = ORIENTED_EDGE ( 'NONE', *, *, #60, .F. ) ;
#26 = DIRECTION ( 'NONE',  ( 0.0000000000000000000, 0.0000000000000000000, 1.000000000000000000 ) ) ;
#27 = LOCAL_TIME ( 10, 34, 57.00000000000000000, #43 ) ;
#28 = LOCAL_TIME ( 10, 34, 57.00000000000000000, #1 ) ;
#29 = DIRECTION ( 'NONE',  ( 1.000000000000000000, 0.0000000000000000000, 0.0000000000000000000 ) ) ;
#30 = ORIENTED_EDGE ( 'NONE', *, *, #49, .F. ) ;
#31 = VERTEX_POINT ( 'NONE', #166 ) ;
#32 = LOCAL_TIME ( 10, 34, 57.00000000000000000, #161 ) ;
#33 = ADVANCED_FACE ( 'NONE', ( #57 ), #16, .T. ) ;
#34 = EDGE_CURVE ( 'NONE', #31, #21, #61, .T. ) ;
#35 = EDGE_LOOP ( 'NONE', ( #88, #133 ) ) ;
#36 = CARTESIAN_POINT ( 'NONE',  ( 0.0000000000000000000, 0.0000000000000000000, -1.500000000000000000 ) ) ;
#37 = CARTESIAN_POINT ( 'NONE',  ( 15.00000000000000000, 1.836970198721029600E-015, 1.500000000000000000 ) ) ;
#38 = APPROVAL_DATE_TIME ( #2, #119 ) ;
#39 = APPROVAL_DATE_TIME ( #18, #72 ) ;
#40 = DIRECTION ( 'NONE',  ( 1.000000000000000000, 0.0000000000000000000, 0.0000000000000000000 ) ) ;
#41 = PERSON_AND_ORGANIZATION_ROLE ( 'design_supplier' ) ;
#42 = ORIENTED_EDGE ( 'NONE', *, *, #156, .T. ) ;
#43 = COORDINATED_UNIVERSAL_TIME_OFFSET ( 5, 0, .BEHIND. ) ;
#44 = AXIS2_PLACEMENT_3D ( 'NONE', #136, #51, #128 ) ;
#45 = LINE ( 'NONE', #19, #98 ) ;
#46 = AXIS2_PLACEMENT_3D ( 'NONE', #36, #69, #91 ) ;
#47 = EDGE_LOOP ( 'NONE', ( #126, #25, #163, #102 ) ) ;
#48 = SHAPE_DEFINITION_REPRESENTATION ( #99, #109 ) ;
#49 = EDGE_CURVE ( 'NONE', #130, #31, #141, .T. ) ;
#50 = CLOSED_SHELL ( 'NONE', ( #90, #33, #77, #106 ) ) ;
#51 = DIRECTION ( 'NONE',  ( 0.0000000000000000000, 0.0000000000000000000, 1.000000000000000000 ) ) ;
#52 = PERSON_AND_ORGANIZATION ( #167, #110 ) ;
#53 = DIRECTION ( 'NONE',  ( -0.0000000000000000000, -0.0000000000000000000, -1.000000000000000000 ) ) ;
#54 = DIRECTION ( 'NONE',  ( 1.000000000000000000, 0.0000000000000000000, 0.0000000000000000000 ) ) ;
#55 = AXIS2_PLACEMENT_3D ( 'NONE', #111, #26, #158 ) ;
#56 = APPROVAL_ROLE ( '' ) ;
#57 = FACE_OUTER_BOUND ( 'NONE', #47, .T. ) ;
#58 = AXIS2_PLACEMENT_3D ( 'NONE', #170, #142, #29 ) ;
#59 =( NAMED_UNIT ( * ) SI_UNIT ( $, .STERADIAN. ) SOLID_ANGLE_UNIT ( ) );
#60 = EDGE_CURVE ( 'NONE', #31, #130, #121, .T. ) ;
#61 = LINE ( 'NONE', #138, #64 ) ;
#62 = PRODUCT ( 'Web Model 45569_39301', 'Web Model 45569_39301', '', ( #84 ) ) ;
#63 = PRODUCT_DEFINITION ( 'UNKNOWN', '', #135, #137 ) ;
#64 = VECTOR ( 'NONE', #155, 1000.000000000000000 ) ;
#65 = AXIS2_PLACEMENT_3D ( 'NONE', #94, #53, #115 ) ;
#66 = COORDINATED_UNIVERSAL_TIME_OFFSET ( 5, 0, .BEHIND. ) ;
#67 = CC_DESIGN_APPROVAL ( #72, ( #63 ) ) ;
#68 = PLANE ( 'NONE',  #95 ) ;
#69 = DIRECTION ( 'NONE',  ( 0.0000000000000000000, 0.0000000000000000000, 1.000000000000000000 ) ) ;
#70 =( LENGTH_UNIT ( ) NAMED_UNIT ( * ) SI_UNIT ( .MILLI., .METRE. ) );
#71 = APPROVAL_PERSON_ORGANIZATION ( #147, #72, #118 ) ;
#72 = APPROVAL ( #97, 'UNSPECIFIED' ) ;
#73 = DATE_AND_TIME ( #122, #27 ) ;
#74 = DATE_AND_TIME ( #12, #15 ) ;
#75 = VERTEX_POINT ( 'NONE', #3 ) ;
#76 = CC_DESIGN_PERSON_AND_ORGANIZATION_ASSIGNMENT ( #107, #140, ( #63 ) ) ;
#77 = ADVANCED_FACE ( 'NONE', ( #139 ), #68, .T. ) ;
#78 = FACE_OUTER_BOUND ( 'NONE', #23, .T. ) ;
#79 = ORIENTED_EDGE ( 'NONE', *, *, #34, .F. ) ;
#80 = DIRECTION ( 'NONE',  ( 0.0000000000000000000, 0.0000000000000000000, 1.000000000000000000 ) ) ;
#81 = PERSON_AND_ORGANIZATION ( #167, #110 ) ;
#82 = DIRECTION ( 'NONE',  ( -1.000000000000000000, 0.0000000000000000000, 0.0000000000000000000 ) ) ;
#83 = APPROVAL_ROLE ( '' ) ;
#84 = MECHANICAL_CONTEXT ( 'NONE', #171, 'mechanical' ) ;
#85 = PERSON_AND_ORGANIZATION_ROLE ( 'classification_officer' ) ;
#86 = PERSON_AND_ORGANIZATION_ROLE ( 'design_owner' ) ;
#87 = ORIENTED_EDGE ( 'NONE', *, *, #24, .T. ) ;
#88 = ORIENTED_EDGE ( 'NONE', *, *, #149, .F. ) ;
#89 = CC_DESIGN_DATE_AND_TIME_ASSIGNMENT ( #73, #160, ( #63 ) ) ;
#90 = ADVANCED_FACE ( 'NONE', ( #78 ), #174, .T. ) ;
#91 = DIRECTION ( 'NONE',  ( 1.000000000000000000, 0.0000000000000000000, -0.0000000000000000000 ) ) ;
#92 = SECURITY_CLASSIFICATION ( '', '', #143 ) ;
#93 = DATE_AND_TIME ( #145, #134 ) ;
#94 = CARTESIAN_POINT ( 'NONE',  ( 0.0000000000000000000, 0.0000000000000000000, 1.500000000000000000 ) ) ;
#95 = AXIS2_PLACEMENT_3D ( 'NONE', #169, #80, #124 ) ;
#96 = CARTESIAN_POINT ( 'NONE',  ( 0.0000000000000000000, 0.0000000000000000000, -1.500000000000000000 ) ) ;
#97 = APPROVAL_STATUS ( 'not_yet_approved' ) ;
#98 = VECTOR ( 'NONE', #151, 1000.000000000000000 ) ;
#99 = PRODUCT_DEFINITION_SHAPE ( 'NONE', 'NONE',  #63 ) ;
#100 = CC_DESIGN_APPROVAL ( #146, ( #135 ) ) ;
#101 = CIRCLE ( 'NONE', #55, 15.00000000000000000 ) ;
#102 = ORIENTED_EDGE ( 'NONE', *, *, #149, .T. ) ;
#103 =( GEOMETRIC_REPRESENTATION_CONTEXT ( 3 ) GLOBAL_UNCERTAINTY_ASSIGNED_CONTEXT ( ( #13 ) ) GLOBAL_UNIT_ASSIGNED_CONTEXT ( ( #70, #157, #59 ) ) REPRESENTATION_CONTEXT ( 'NONE', 'WORKASPACE' ) );
#104 = APPROVAL_PERSON_ORGANIZATION ( #173, #146, #56 ) ;
#105 = AXIS2_PLACEMENT_3D ( 'NONE', #6, #112, #40 ) ;
#106 = ADVANCED_FACE ( 'NONE', ( #150 ), #4, .F. ) ;
#107 = PERSON_AND_ORGANIZATION ( #167, #110 ) ;
#108 = AXIS2_PLACEMENT_3D ( 'NONE', #96, #172, #54 ) ;
#109 = ADVANCED_BREP_SHAPE_REPRESENTATION ( 'Web Model 45569_39301', ( #22, #58 ), #103 ) ;
#110 = ORGANIZATION ( 'UNSPECIFIED', 'UNSPECIFIED', '' ) ;
#111 = CARTESIAN_POINT ( 'NONE',  ( 0.0000000000000000000, 0.0000000000000000000, -1.500000000000000000 ) ) ;
#112 = DIRECTION ( 'NONE',  ( 0.0000000000000000000, 0.0000000000000000000, 1.000000000000000000 ) ) ;
#113 = CC_DESIGN_PERSON_AND_ORGANIZATION_ASSIGNMENT ( #14, #41, ( #135 ) ) ;
#114 = APPROVAL_DATE_TIME ( #93, #146 ) ;
#115 = DIRECTION ( 'NONE',  ( -1.000000000000000000, 0.0000000000000000000, 0.0000000000000000000 ) ) ;
#116 = DATE_TIME_ROLE ( 'classification_date' ) ;
#117 = PERSON_AND_ORGANIZATION_ROLE ( 'creator' ) ;
#118 = APPROVAL_ROLE ( '' ) ;
#119 = APPROVAL ( #10, 'UNSPECIFIED' ) ;
#120 = APPROVAL_PERSON_ORGANIZATION ( #52, #119, #83 ) ;
#121 = CIRCLE ( 'NONE', #105, 15.00000000000000000 ) ;
#122 = CALENDAR_DATE ( 2019, 7, 1 ) ;
#123 = CC_DESIGN_DATE_AND_TIME_ASSIGNMENT ( #74, #116, ( #92 ) ) ;
#124 = DIRECTION ( 'NONE',  ( 1.000000000000000000, 0.0000000000000000000, -0.0000000000000000000 ) ) ;
#125 = CARTESIAN_POINT ( 'NONE',  ( 0.0000000000000000000, 0.0000000000000000000, 1.500000000000000000 ) ) ;
#126 = ORIENTED_EDGE ( 'NONE', *, *, #24, .F. ) ;
#127 = CC_DESIGN_PERSON_AND_ORGANIZATION_ASSIGNMENT ( #148, #85, ( #92 ) ) ;
#128 = DIRECTION ( 'NONE',  ( 1.000000000000000000, 0.0000000000000000000, 0.0000000000000000000 ) ) ;
#129 = CALENDAR_DATE ( 2019, 7, 1 ) ;
#130 = VERTEX_POINT ( 'NONE', #37 ) ;
#131 = APPLICATION_PROTOCOL_DEFINITION ( 'international standard', 'config_control_design', 1994, #171 ) ;
#132 = CC_DESIGN_SECURITY_CLASSIFICATION ( #92, ( #135 ) ) ;
#133 = ORIENTED_EDGE ( 'NONE', *, *, #156, .F. ) ;
#134 = LOCAL_TIME ( 10, 34, 57.00000000000000000, #162 ) ;
#135 = PRODUCT_DEFINITION_FORMATION_WITH_SPECIFIED_SOURCE ( 'ANY', '', #62, .NOT_KNOWN. ) ;
#136 = CARTESIAN_POINT ( 'NONE',  ( 0.0000000000000000000, 0.0000000000000000000, 1.500000000000000000 ) ) ;
#137 = DESIGN_CONTEXT ( 'detailed design', #9, 'design' ) ;
#138 = CARTESIAN_POINT ( 'NONE',  ( -15.00000000000000000, 0.0000000000000000000, 1.500000000000000000 ) ) ;
#139 = FACE_OUTER_BOUND ( 'NONE', #159, .T. ) ;
#140 = PERSON_AND_ORGANIZATION_ROLE ( 'creator' ) ;
#141 = CIRCLE ( 'NONE', #44, 15.00000000000000000 ) ;
#142 = DIRECTION ( 'NONE',  ( 0.0000000000000000000, 0.0000000000000000000, 1.000000000000000000 ) ) ;
#143 = SECURITY_CLASSIFICATION_LEVEL ( 'unclassified' ) ;
#144 = CC_DESIGN_APPROVAL ( #119, ( #92 ) ) ;
#145 = CALENDAR_DATE ( 2019, 7, 1 ) ;
#146 = APPROVAL ( #11, 'UNSPECIFIED' ) ;
#147 = PERSON_AND_ORGANIZATION ( #167, #110 ) ;
#148 = PERSON_AND_ORGANIZATION ( #167, #110 ) ;
#149 = EDGE_CURVE ( 'NONE', #21, #75, #101, .T. ) ;
#150 = FACE_OUTER_BOUND ( 'NONE', #35, .T. ) ;
#151 = DIRECTION ( 'NONE',  ( -0.0000000000000000000, -0.0000000000000000000, -1.000000000000000000 ) ) ;
#152 = PRODUCT_RELATED_PRODUCT_CATEGORY ( 'detail', '', ( #62 ) ) ;
#153 = CARTESIAN_POINT ( 'NONE',  ( -15.00000000000000000, 0.0000000000000000000, -1.500000000000000000 ) ) ;
#154 = DIRECTION ( 'NONE',  ( -0.0000000000000000000, -0.0000000000000000000, -1.000000000000000000 ) ) ;
#155 = DIRECTION ( 'NONE',  ( -0.0000000000000000000, -0.0000000000000000000, -1.000000000000000000 ) ) ;
#156 = EDGE_CURVE ( 'NONE', #75, #21, #168, .T. ) ;
#157 =( NAMED_UNIT ( * ) PLANE_ANGLE_UNIT ( ) SI_UNIT ( $, .RADIAN. ) );
#158 = DIRECTION ( 'NONE',  ( 1.000000000000000000, 0.0000000000000000000, 0.0000000000000000000 ) ) ;
#159 = EDGE_LOOP ( 'NONE', ( #165, #5 ) ) ;
#160 = DATE_TIME_ROLE ( 'creation_date' ) ;
#161 = COORDINATED_UNIVERSAL_TIME_OFFSET ( 5, 0, .BEHIND. ) ;
#162 = COORDINATED_UNIVERSAL_TIME_OFFSET ( 5, 0, .BEHIND. ) ;
#163 = ORIENTED_EDGE ( 'NONE', *, *, #34, .T. ) ;
#164 = CC_DESIGN_PERSON_AND_ORGANIZATION_ASSIGNMENT ( #81, #117, ( #135 ) ) ;
#165 = ORIENTED_EDGE ( 'NONE', *, *, #60, .T. ) ;
#166 = CARTESIAN_POINT ( 'NONE',  ( -15.00000000000000000, 0.0000000000000000000, 1.500000000000000000 ) ) ;
#167 = PERSON ( 'UNSPECIFIED', 'UNSPECIFIED', 'UNSPECIFIED', ('UNSPECIFIED'), ('UNSPECIFIED'), ('UNSPECIFIED') ) ;
#168 = CIRCLE ( 'NONE', #108, 15.00000000000000000 ) ;
#169 = CARTESIAN_POINT ( 'NONE',  ( 0.0000000000000000000, 0.0000000000000000000, 1.500000000000000000 ) ) ;
#170 = CARTESIAN_POINT ( 'NONE',  ( 0.0000000000000000000, 0.0000000000000000000, 0.0000000000000000000 ) ) ;
#171 = APPLICATION_CONTEXT ( 'configuration controlled 3d designs of mechanical parts and assemblies' ) ;
#172 = DIRECTION ( 'NONE',  ( 0.0000000000000000000, 0.0000000000000000000, 1.000000000000000000 ) ) ;
#173 = PERSON_AND_ORGANIZATION ( #167, #110 ) ;
#174 = CYLINDRICAL_SURFACE ( 'NONE', #65, 15.00000000000000000 ) ;
#175 = CALENDAR_DATE ( 2019, 7, 1 ) ;
ENDSEC;
END-ISO-10303-21;
