ISO-10303-21;
HEADER;
FILE_DESCRIPTION (( 'STEP AP203' ),
    '1' );
FILE_NAME ('4342-E0W.STEP',
    '2015-06-17T20:53:05',
    ( 'admin' ),
    ( '' ),
    'SwSTEP 2.0',
    'SolidWorks 2014',
    '' );
FILE_SCHEMA (( 'CONFIG_CONTROL_DESIGN' ));
ENDSEC;

DATA;
#1 = ORIENTED_EDGE ( 'NONE', *, *, #275, .T. ) ;
#2 = AXIS2_PLACEMENT_3D ( 'NONE', #314, #269, #292 ) ;
#3 = ORIENTED_EDGE ( 'NONE', *, *, #23, .T. ) ;
#4 = VERTEX_POINT ( 'NONE', #70 ) ;
#5 = DATE_TIME_ROLE ( 'creation_date' ) ;
#6 = EDGE_CURVE ( 'NONE', #146, #4, #230, .T. ) ;
#7 = ORIENTED_EDGE ( 'NONE', *, *, #258, .T. ) ;
#8 = DIRECTION ( 'NONE',  ( 1.000000000000000000, 0.0000000000000000000, 0.0000000000000000000 ) ) ;
#9 = LOCAL_TIME ( 16, 53, 5.000000000000000000, #237 ) ;
#10 = EDGE_LOOP ( 'NONE', ( #117, #83 ) ) ;
#11 = PRODUCT_DEFINITION_FORMATION_WITH_SPECIFIED_SOURCE ( 'ANY', '', #293, .NOT_KNOWN. ) ;
#12 = ORIENTED_EDGE ( 'NONE', *, *, #211, .T. ) ;
#13 = ORIENTED_EDGE ( 'NONE', *, *, #258, .F. ) ;
#14 = ADVANCED_FACE ( 'NONE', ( #170 ), #158, .T. ) ;
#15 = DIRECTION ( 'NONE',  ( 0.0000000000000000000, 0.0000000000000000000, -1.000000000000000000 ) ) ;
#16 = DIRECTION ( 'NONE',  ( 0.7071067811865487900, 0.0000000000000000000, 0.7071067811865463500 ) ) ;
#17 = AXIS2_PLACEMENT_3D ( 'NONE', #26, #21, #127 ) ;
#18 = CARTESIAN_POINT ( 'NONE',  ( 0.0000000000000000000, 0.0000000000000000000, -1.522782641408023400 ) ) ;
#19 = ORIENTED_EDGE ( 'NONE', *, *, #58, .F. ) ;
#20 = ORIENTED_EDGE ( 'NONE', *, *, #211, .F. ) ;
#21 = DIRECTION ( 'NONE',  ( 0.0000000000000000000, 0.0000000000000000000, -1.000000000000000000 ) ) ;
#22 = VERTEX_POINT ( 'NONE', #108 ) ;
#23 = EDGE_CURVE ( 'NONE', #69, #4, #162, .T. ) ;
#24 = LINE ( 'NONE', #276, #134 ) ;
#25 = CONICAL_SURFACE ( 'NONE', #17, 3.822622930335961600, 1.192568134460718600 ) ;
#26 = CARTESIAN_POINT ( 'NONE',  ( 0.0000000000000000000, 0.0000000000000000000, 1.772782641408024300 ) ) ;
#27 = ORIENTED_EDGE ( 'NONE', *, *, #148, .T. ) ;
#28 = APPROVAL ( #73, 'UNSPECIFIED' ) ;
#29 = CALENDAR_DATE ( 2015, 17, 6 ) ;
#30 = CARTESIAN_POINT ( 'NONE',  ( 0.0000000000000000000, 0.0000000000000000000, -1.522782641408023400 ) ) ;
#31 = CARTESIAN_POINT ( 'NONE',  ( 4.000000000000000000, 0.0000000000000000000, -1.522782641408023400 ) ) ;
#32 = VECTOR ( 'NONE', #204, 1000.000000000000000 ) ;
#33 = AXIS2_PLACEMENT_3D ( 'NONE', #103, #168, #245 ) ;
#34 = ORIENTED_EDGE ( 'NONE', *, *, #226, .F. ) ;
#35 = ORIENTED_EDGE ( 'NONE', *, *, #23, .F. ) ;
#36 = DIRECTION ( 'NONE',  ( 0.0000000000000000000, 0.0000000000000000000, -1.000000000000000000 ) ) ;
#37 = EDGE_LOOP ( 'NONE', ( #279, #3, #27, #273 ) ) ;
#38 = DIRECTION ( 'NONE',  ( 0.0000000000000000000, 0.0000000000000000000, -1.000000000000000000 ) ) ;
#39 = CARTESIAN_POINT ( 'NONE',  ( 0.0000000000000000000, 0.0000000000000000000, 1.772782641408024300 ) ) ;
#40 = EDGE_CURVE ( 'NONE', #102, #124, #137, .T. ) ;
#41 = FACE_OUTER_BOUND ( 'NONE', #37, .T. ) ;
#42 = DIRECTION ( 'NONE',  ( -1.000000000000000000, 0.0000000000000000000, 0.0000000000000000000 ) ) ;
#43 = CONICAL_SURFACE ( 'NONE', #252, 4.000000000000000000, 0.7853981633974500600 ) ;
#44 = DIRECTION ( 'NONE',  ( -0.0000000000000000000, -0.0000000000000000000, 1.000000000000000000 ) ) ;
#45 = EDGE_CURVE ( 'NONE', #66, #238, #161, .T. ) ;
#46 = CARTESIAN_POINT ( 'NONE',  ( -4.681362935983210100E-016, -3.822622930335961600, 1.772782641408024300 ) ) ;
#47 = CIRCLE ( 'NONE', #288, 3.822622930335962000 ) ;
#48 = ORIENTED_EDGE ( 'NONE', *, *, #275, .F. ) ;
#49 = CC_DESIGN_APPROVAL ( #28, ( #11 ) ) ;
#50 = APPLICATION_CONTEXT ( 'configuration controlled 3d designs of mechanical parts and assemblies' ) ;
#51 = EDGE_LOOP ( 'NONE', ( #1, #253, #291, #13 ) ) ;
#52 = LINE ( 'NONE', #216, #286 ) ;
#53 = AXIS2_PLACEMENT_3D ( 'NONE', #313, #54, #251 ) ;
#54 = DIRECTION ( 'NONE',  ( -0.0000000000000000000, -0.0000000000000000000, 1.000000000000000000 ) ) ;
#55 = CYLINDRICAL_SURFACE ( 'NONE', #309, 4.000000000000000000 ) ;
#56 = CARTESIAN_POINT ( 'NONE',  ( 3.822622930335962000, 4.789975066286311900E-016, 1.772782641408024300 ) ) ;
#57 = DIRECTION ( 'NONE',  ( 0.9293203772845879400, 1.138089225423981300E-016, -0.3692744729379911500 ) ) ;
#58 = EDGE_CURVE ( 'NONE', #124, #146, #164, .T. ) ;
#59 = ORIENTED_EDGE ( 'NONE', *, *, #6, .T. ) ;
#60 = PERSON_AND_ORGANIZATION_ROLE ( 'classification_officer' ) ;
#61 = PERSON_AND_ORGANIZATION ( #246, #256 ) ;
#62 = CC_DESIGN_PERSON_AND_ORGANIZATION_ASSIGNMENT ( #155, #195, ( #11 ) ) ;
#63 = CLOSED_SHELL ( 'NONE', ( #232, #94, #142, #188, #318, #212, #287, #120, #14 ) ) ;
#64 = PERSON_AND_ORGANIZATION_ROLE ( 'design_owner' ) ;
#65 = ORIENTED_EDGE ( 'NONE', *, *, #76, .T. ) ;
#66 = VERTEX_POINT ( 'NONE', #97 ) ;
#67 = CIRCLE ( 'NONE', #271, 5.500000000000005300 ) ;
#68 = CARTESIAN_POINT ( 'NONE',  ( 0.0000000000000000000, 0.0000000000000000000, 5.727217358591981400 ) ) ;
#69 = VERTEX_POINT ( 'NONE', #311 ) ;
#70 = CARTESIAN_POINT ( 'NONE',  ( 0.0000000000000000000, 3.822622930335961600, 1.772782641408024300 ) ) ;
#71 = PRODUCT_DEFINITION_SHAPE ( 'NONE', 'NONE',  #247 ) ;
#72 = CARTESIAN_POINT ( 'NONE',  ( 0.0000000000000000000, 0.0000000000000000000, -1.522782641408023400 ) ) ;
#73 = APPROVAL_STATUS ( 'not_yet_approved' ) ;
#74 = EDGE_CURVE ( 'NONE', #238, #66, #301, .T. ) ;
#75 = ORIENTED_EDGE ( 'NONE', *, *, #255, .F. ) ;
#76 = EDGE_CURVE ( 'NONE', #146, #236, #141, .T. ) ;
#77 = DIRECTION ( 'NONE',  ( -1.000000000000000000, 1.224646799147353200E-016, 0.0000000000000000000 ) ) ;
#78 = PERSON_AND_ORGANIZATION ( #246, #256 ) ;
#79 = CC_DESIGN_PERSON_AND_ORGANIZATION_ASSIGNMENT ( #112, #197, ( #11 ) ) ;
#80 = APPLICATION_PROTOCOL_DEFINITION ( 'international standard', 'config_control_design', 1994, #50 ) ;
#81 = SHAPE_DEFINITION_REPRESENTATION ( #71, #270 ) ;
#82 = DATE_AND_TIME ( #101, #89 ) ;
#83 = ORIENTED_EDGE ( 'NONE', *, *, #45, .T. ) ;
#84 = DIRECTION ( 'NONE',  ( -0.0000000000000000000, -0.0000000000000000000, 1.000000000000000000 ) ) ;
#85 = AXIS2_PLACEMENT_3D ( 'NONE', #18, #98, #166 ) ;
#86 = ORIENTED_EDGE ( 'NONE', *, *, #92, .F. ) ;
#87 = DIRECTION ( 'NONE',  ( 0.0000000000000000000, 0.0000000000000000000, 1.000000000000000000 ) ) ;
#88 = CIRCLE ( 'NONE', #125, 4.000000000000000000 ) ;
#89 = LOCAL_TIME ( 16, 53, 5.000000000000000000, #115 ) ;
#90 = VERTEX_POINT ( 'NONE', #305 ) ;
#91 = EDGE_LOOP ( 'NONE', ( #75, #96, #7, #225 ) ) ;
#92 = EDGE_CURVE ( 'NONE', #236, #22, #183, .T. ) ;
#93 = DIRECTION ( 'NONE',  ( 0.0000000000000000000, 0.0000000000000000000, -1.000000000000000000 ) ) ;
#94 = ADVANCED_FACE ( 'NONE', ( #165 ), #278, .T. ) ;
#95 = DIRECTION ( 'NONE',  ( 0.0000000000000000000, -0.0000000000000000000, 1.000000000000000000 ) ) ;
#96 = ORIENTED_EDGE ( 'NONE', *, *, #297, .T. ) ;
#97 = CARTESIAN_POINT ( 'NONE',  ( -3.749999999999998200, 4.745506346695992900E-016, -1.772782641408024300 ) ) ;
#98 = DIRECTION ( 'NONE',  ( -0.0000000000000000000, -0.0000000000000000000, 1.000000000000000000 ) ) ;
#99 = SECURITY_CLASSIFICATION ( '', '', #198 ) ;
#100 = DIRECTION ( 'NONE',  ( -1.000000000000000000, 0.0000000000000000000, 0.0000000000000000000 ) ) ;
#101 = CALENDAR_DATE ( 2015, 17, 6 ) ;
#102 = VERTEX_POINT ( 'NONE', #144 ) ;
#103 = CARTESIAN_POINT ( 'NONE',  ( 0.0000000000000000000, 0.0000000000000000000, 0.2272173585919756200 ) ) ;
#104 = PERSON_AND_ORGANIZATION ( #246, #256 ) ;
#105 = APPROVAL_ROLE ( '' ) ;
#106 = AXIS2_PLACEMENT_3D ( 'NONE', #140, #95, #133 ) ;
#107 = VERTEX_POINT ( 'NONE', #119 ) ;
#108 = CARTESIAN_POINT ( 'NONE',  ( -4.000000000000000000, 4.898587196589412800E-016, 1.702300140956606100 ) ) ;
#109 = DIRECTION ( 'NONE',  ( 1.000000000000000000, 0.0000000000000000000, 0.0000000000000000000 ) ) ;
#110 = AXIS2_PLACEMENT_3D ( 'NONE', #254, #190, #260 ) ;
#111 = LINE ( 'NONE', #31, #167 ) ;
#112 = PERSON_AND_ORGANIZATION ( #246, #256 ) ;
#113 = APPLICATION_CONTEXT ( 'configuration controlled 3d designs of mechanical parts and assemblies' ) ;
#114 = CC_DESIGN_PERSON_AND_ORGANIZATION_ASSIGNMENT ( #130, #60, ( #99 ) ) ;
#115 = COORDINATED_UNIVERSAL_TIME_OFFSET ( 5, 0, .BEHIND. ) ;
#116 = ORIENTED_EDGE ( 'NONE', *, *, #297, .F. ) ;
#117 = ORIENTED_EDGE ( 'NONE', *, *, #74, .T. ) ;
#118 = CARTESIAN_POINT ( 'NONE',  ( 0.0000000000000000000, 0.0000000000000000000, 5.727217358591981400 ) ) ;
#119 = CARTESIAN_POINT ( 'NONE',  ( 4.000000000000000000, 0.0000000000000000000, -1.522782641408023400 ) ) ;
#120 = ADVANCED_FACE ( 'NONE', ( #191 ), #43, .T. ) ;
#121 = CARTESIAN_POINT ( 'NONE',  ( 0.0000000000000000000, 0.0000000000000000000, 1.702300140956606100 ) ) ;
#122 = DIRECTION ( 'NONE',  ( 1.000000000000000000, 0.0000000000000000000, 0.0000000000000000000 ) ) ;
#123 = ORIENTED_EDGE ( 'NONE', *, *, #148, .F. ) ;
#124 = VERTEX_POINT ( 'NONE', #46 ) ;
#125 = AXIS2_PLACEMENT_3D ( 'NONE', #231, #38, #317 ) ;
#126 = APPROVAL_DATE_TIME ( #267, #264 ) ;
#127 = DIRECTION ( 'NONE',  ( -1.000000000000000000, 0.0000000000000000000, 0.0000000000000000000 ) ) ;
#128 = AXIS2_PLACEMENT_3D ( 'NONE', #39, #217, #42 ) ;
#129 = UNCERTAINTY_MEASURE_WITH_UNIT (LENGTH_MEASURE( 1.000000000000000100E-005 ), #199, 'distance_accuracy_value', 'NONE');
#130 = PERSON_AND_ORGANIZATION ( #246, #256 ) ;
#131 = CC_DESIGN_DATE_AND_TIME_ASSIGNMENT ( #82, #180, ( #99 ) ) ;
#132 = DIRECTION ( 'NONE',  ( 0.0000000000000000000, 1.000000000000000000, 0.0000000000000000000 ) ) ;
#133 = DIRECTION ( 'NONE',  ( 1.000000000000000000, 0.0000000000000000000, 0.0000000000000000000 ) ) ;
#134 = VECTOR ( 'NONE', #171, 1000.000000000000000 ) ;
#135 = CARTESIAN_POINT ( 'NONE',  ( 0.0000000000000000000, 0.0000000000000000000, 1.772782641408024300 ) ) ;
#136 =( GEOMETRIC_REPRESENTATION_CONTEXT ( 3 ) GLOBAL_UNCERTAINTY_ASSIGNED_CONTEXT ( ( #129 ) ) GLOBAL_UNIT_ASSIGNED_CONTEXT ( ( #199, #154, #298 ) ) REPRESENTATION_CONTEXT ( 'NONE', 'WORKASPACE' ) );
#137 = CIRCLE ( 'NONE', #157, 3.822622930335962000 ) ;
#138 = APPROVAL_ROLE ( '' ) ;
#139 = DATE_AND_TIME ( #29, #9 ) ;
#140 = CARTESIAN_POINT ( 'NONE',  ( 0.0000000000000000000, 0.0000000000000000000, -1.772782641408024300 ) ) ;
#141 = LINE ( 'NONE', #249, #218 ) ;
#142 = ADVANCED_FACE ( 'NONE', ( #200 ), #55, .T. ) ;
#143 = AXIS2_PLACEMENT_3D ( 'NONE', #201, #189, #36 ) ;
#144 = CARTESIAN_POINT ( 'NONE',  ( -3.822622930335962000, 0.0000000000000000000, 1.772782641408024300 ) ) ;
#145 = CARTESIAN_POINT ( 'NONE',  ( 0.0000000000000000000, 0.0000000000000000000, 0.2272173585919756200 ) ) ;
#146 = VERTEX_POINT ( 'NONE', #56 ) ;
#147 = APPROVAL ( #150, 'UNSPECIFIED' ) ;
#148 = EDGE_CURVE ( 'NONE', #4, #102, #47, .T. ) ;
#149 = ORIENTED_EDGE ( 'NONE', *, *, #6, .F. ) ;
#150 = APPROVAL_STATUS ( 'not_yet_approved' ) ;
#151 = FACE_OUTER_BOUND ( 'NONE', #91, .T. ) ;
#152 = AXIS2_PLACEMENT_3D ( 'NONE', #68, #100, #132 ) ;
#153 = EDGE_LOOP ( 'NONE', ( #192, #308, #12, #116 ) ) ;
#154 =( NAMED_UNIT ( * ) PLANE_ANGLE_UNIT ( ) SI_UNIT ( $, .RADIAN. ) );
#155 = PERSON_AND_ORGANIZATION ( #246, #256 ) ;
#156 = DIRECTION ( 'NONE',  ( 1.000000000000000000, 0.0000000000000000000, 0.0000000000000000000 ) ) ;
#157 = AXIS2_PLACEMENT_3D ( 'NONE', #219, #222, #122 ) ;
#158 = CONICAL_SURFACE ( 'NONE', #128, 3.822622930335961600, 1.192568134460718600 ) ;
#159 = CC_DESIGN_APPROVAL ( #147, ( #99 ) ) ;
#160 = APPROVAL_DATE_TIME ( #182, #28 ) ;
#161 = CIRCLE ( 'NONE', #172, 3.749999999999998200 ) ;
#162 = CIRCLE ( 'NONE', #143, 5.500000000000005300 ) ;
#163 = CARTESIAN_POINT ( 'NONE',  ( 0.0000000000000000000, 0.0000000000000000000, -1.772782641408024300 ) ) ;
#164 = CIRCLE ( 'NONE', #187, 3.822622930335962000 ) ;
#165 = FACE_OUTER_BOUND ( 'NONE', #208, .T. ) ;
#166 = DIRECTION ( 'NONE',  ( 1.000000000000000000, 0.0000000000000000000, 0.0000000000000000000 ) ) ;
#167 = VECTOR ( 'NONE', #16, 1000.000000000000000 ) ;
#168 = DIRECTION ( 'NONE',  ( -0.0000000000000000000, -0.0000000000000000000, 1.000000000000000000 ) ) ;
#169 = FACE_OUTER_BOUND ( 'NONE', #179, .T. ) ;
#170 = FACE_OUTER_BOUND ( 'NONE', #265, .T. ) ;
#171 = DIRECTION ( 'NONE',  ( -0.0000000000000000000, -0.0000000000000000000, 1.000000000000000000 ) ) ;
#172 = AXIS2_PLACEMENT_3D ( 'NONE', #163, #296, #307 ) ;
#173 = APPROVAL_PERSON_ORGANIZATION ( #78, #264, #206 ) ;
#174 = DIRECTION ( 'NONE',  ( -0.0000000000000000000, -0.0000000000000000000, 1.000000000000000000 ) ) ;
#175 = APPROVAL_DATE_TIME ( #241, #147 ) ;
#176 = CC_DESIGN_SECURITY_CLASSIFICATION ( #99, ( #11 ) ) ;
#177 = CARTESIAN_POINT ( 'NONE',  ( -3.822622930335961600, 0.0000000000000000000, 1.772782641408024300 ) ) ;
#178 = PERSON_AND_ORGANIZATION ( #246, #256 ) ;
#179 = EDGE_LOOP ( 'NONE', ( #35, #268, #321, #59 ) ) ;
#180 = DATE_TIME_ROLE ( 'classification_date' ) ;
#181 = DIRECTION ( 'NONE',  ( -1.224646799147353200E-016, -1.000000000000000000, 0.0000000000000000000 ) ) ;
#182 = DATE_AND_TIME ( #203, #223 ) ;
#183 = CIRCLE ( 'NONE', #220, 4.000000000000000000 ) ;
#184 = PERSON_AND_ORGANIZATION_ROLE ( 'creator' ) ;
#185 = CARTESIAN_POINT ( 'NONE',  ( 3.749999999999998200, 0.0000000000000000000, -1.772782641408024300 ) ) ;
#186 = ORIENTED_EDGE ( 'NONE', *, *, #76, .F. ) ;
#187 = AXIS2_PLACEMENT_3D ( 'NONE', #202, #84, #109 ) ;
#188 = ADVANCED_FACE ( 'NONE', ( #169 ), #300, .F. ) ;
#189 = DIRECTION ( 'NONE',  ( 1.000000000000000000, -0.0000000000000000000, 0.0000000000000000000 ) ) ;
#190 = DIRECTION ( 'NONE',  ( -0.0000000000000000000, -0.0000000000000000000, 1.000000000000000000 ) ) ;
#191 = FACE_OUTER_BOUND ( 'NONE', #153, .T. ) ;
#192 = ORIENTED_EDGE ( 'NONE', *, *, #248, .F. ) ;
#193 = PRODUCT_RELATED_PRODUCT_CATEGORY ( 'detail', '', ( #293 ) ) ;
#194 = FACE_OUTER_BOUND ( 'NONE', #290, .T. ) ;
#195 = PERSON_AND_ORGANIZATION_ROLE ( 'creator' ) ;
#196 = FACE_OUTER_BOUND ( 'NONE', #10, .T. ) ;
#197 = PERSON_AND_ORGANIZATION_ROLE ( 'design_supplier' ) ;
#198 = SECURITY_CLASSIFICATION_LEVEL ( 'unclassified' ) ;
#199 =( LENGTH_UNIT ( ) NAMED_UNIT ( * ) SI_UNIT ( .MILLI., .METRE. ) );
#200 = FACE_OUTER_BOUND ( 'NONE', #51, .T. ) ;
#201 = CARTESIAN_POINT ( 'NONE',  ( 0.0000000000000000000, 0.0000000000000000000, 5.727217358591981400 ) ) ;
#202 = CARTESIAN_POINT ( 'NONE',  ( 0.0000000000000000000, 0.0000000000000000000, 1.772782641408024300 ) ) ;
#203 = CALENDAR_DATE ( 2015, 17, 6 ) ;
#204 = DIRECTION ( 'NONE',  ( -0.7071067811865487900, 8.659560562354948900E-017, 0.7071067811865463500 ) ) ;
#205 = AXIS2_PLACEMENT_3D ( 'NONE', #294, #93, #257 ) ;
#206 = APPROVAL_ROLE ( '' ) ;
#207 = MECHANICAL_CONTEXT ( 'NONE', #113, 'mechanical' ) ;
#208 = EDGE_LOOP ( 'NONE', ( #209, #261, #48, #20 ) ) ;
#209 = ORIENTED_EDGE ( 'NONE', *, *, #45, .F. ) ;
#210 = APPROVAL_STATUS ( 'not_yet_approved' ) ;
#211 = EDGE_CURVE ( 'NONE', #238, #107, #111, .T. ) ;
#212 = ADVANCED_FACE ( 'NONE', ( #151 ), #244, .T. ) ;
#213 = DIRECTION ( 'NONE',  ( 1.000000000000000000, 0.0000000000000000000, 0.0000000000000000000 ) ) ;
#214 = DIRECTION ( 'NONE',  ( -0.0000000000000000000, -0.0000000000000000000, 1.000000000000000000 ) ) ;
#215 = AXIS2_PLACEMENT_3D ( 'NONE', #303, #87, #213 ) ;
#216 = CARTESIAN_POINT ( 'NONE',  ( 4.000000000000000000, 0.0000000000000000000, 0.2272173585919756200 ) ) ;
#217 = DIRECTION ( 'NONE',  ( 0.0000000000000000000, 0.0000000000000000000, -1.000000000000000000 ) ) ;
#218 = VECTOR ( 'NONE', #57, 1000.000000000000000 ) ;
#219 = CARTESIAN_POINT ( 'NONE',  ( 0.0000000000000000000, 0.0000000000000000000, 1.772782641408024300 ) ) ;
#220 = AXIS2_PLACEMENT_3D ( 'NONE', #121, #15, #262 ) ;
#221 = CIRCLE ( 'NONE', #85, 4.000000000000000000 ) ;
#222 = DIRECTION ( 'NONE',  ( -0.0000000000000000000, -0.0000000000000000000, 1.000000000000000000 ) ) ;
#223 = LOCAL_TIME ( 16, 53, 5.000000000000000000, #229 ) ;
#224 = DIRECTION ( 'NONE',  ( 1.000000000000000000, 0.0000000000000000000, 0.0000000000000000000 ) ) ;
#225 = ORIENTED_EDGE ( 'NONE', *, *, #92, .T. ) ;
#226 = EDGE_CURVE ( 'NONE', #102, #22, #284, .T. ) ;
#227 = APPROVAL_PERSON_ORGANIZATION ( #178, #28, #138 ) ;
#228 = CC_DESIGN_PERSON_AND_ORGANIZATION_ASSIGNMENT ( #104, #64, ( #293 ) ) ;
#229 = COORDINATED_UNIVERSAL_TIME_OFFSET ( 5, 0, .BEHIND. ) ;
#230 = CIRCLE ( 'NONE', #110, 3.822622930335962000 ) ;
#231 = CARTESIAN_POINT ( 'NONE',  ( 0.0000000000000000000, 0.0000000000000000000, 1.702300140956606100 ) ) ;
#232 = ADVANCED_FACE ( 'NONE', ( #194 ), #25, .T. ) ;
#233 = DIRECTION ( 'NONE',  ( -0.9293203772845879400, 0.0000000000000000000, -0.3692744729379911500 ) ) ;
#234 = PERSON_AND_ORGANIZATION ( #246, #256 ) ;
#235 = AXIS2_PLACEMENT_3D ( 'NONE', #30, #174, #156 ) ;
#236 = VERTEX_POINT ( 'NONE', #239 ) ;
#237 = COORDINATED_UNIVERSAL_TIME_OFFSET ( 5, 0, .BEHIND. ) ;
#238 = VERTEX_POINT ( 'NONE', #185 ) ;
#239 = CARTESIAN_POINT ( 'NONE',  ( 4.000000000000000000, 0.0000000000000000000, 1.702300140956606100 ) ) ;
#240 = ORIENTED_EDGE ( 'NONE', *, *, #315, .F. ) ;
#241 = DATE_AND_TIME ( #283, #304 ) ;
#242 = EDGE_CURVE ( 'NONE', #69, #124, #67, .T. ) ;
#243 = SPHERICAL_SURFACE ( 'NONE', #152, 5.500000000000005300 ) ;
#244 = CYLINDRICAL_SURFACE ( 'NONE', #33, 4.000000000000000000 ) ;
#245 = DIRECTION ( 'NONE',  ( 1.000000000000000000, 0.0000000000000000000, 0.0000000000000000000 ) ) ;
#246 = PERSON ( 'UNSPECIFIED', 'UNSPECIFIED', 'UNSPECIFIED', ('UNSPECIFIED'), ('UNSPECIFIED'), ('UNSPECIFIED') ) ;
#247 = PRODUCT_DEFINITION ( 'UNKNOWN', '', #11, #306 ) ;
#248 = EDGE_CURVE ( 'NONE', #66, #90, #282, .T. ) ;
#249 = CARTESIAN_POINT ( 'NONE',  ( 3.822622930335961600, 4.681362935983211100E-016, 1.772782641408024300 ) ) ;
#250 = VECTOR ( 'NONE', #233, 1000.000000000000000 ) ;
#251 = DIRECTION ( 'NONE',  ( 1.000000000000000000, 0.0000000000000000000, 0.0000000000000000000 ) ) ;
#252 = AXIS2_PLACEMENT_3D ( 'NONE', #72, #44, #277 ) ;
#253 = ORIENTED_EDGE ( 'NONE', *, *, #255, .T. ) ;
#254 = CARTESIAN_POINT ( 'NONE',  ( 0.0000000000000000000, 0.0000000000000000000, 1.772782641408024300 ) ) ;
#255 = EDGE_CURVE ( 'NONE', #90, #22, #24, .T. ) ;
#256 = ORGANIZATION ( 'UNSPECIFIED', 'UNSPECIFIED', '' ) ;
#257 = DIRECTION ( 'NONE',  ( 1.000000000000000000, 0.0000000000000000000, 0.0000000000000000000 ) ) ;
#258 = EDGE_CURVE ( 'NONE', #107, #236, #52, .T. ) ;
#259 = LOCAL_TIME ( 16, 53, 5.000000000000000000, #263 ) ;
#260 = DIRECTION ( 'NONE',  ( 1.000000000000000000, 0.0000000000000000000, 0.0000000000000000000 ) ) ;
#261 = ORIENTED_EDGE ( 'NONE', *, *, #248, .T. ) ;
#262 = DIRECTION ( 'NONE',  ( -1.000000000000000000, 0.0000000000000000000, 0.0000000000000000000 ) ) ;
#263 = COORDINATED_UNIVERSAL_TIME_OFFSET ( 5, 0, .BEHIND. ) ;
#264 = APPROVAL ( #210, 'UNSPECIFIED' ) ;
#265 = EDGE_LOOP ( 'NONE', ( #186, #19, #312, #266, #86 ) ) ;
#266 = ORIENTED_EDGE ( 'NONE', *, *, #226, .T. ) ;
#267 = DATE_AND_TIME ( #272, #259 ) ;
#268 = ORIENTED_EDGE ( 'NONE', *, *, #242, .T. ) ;
#269 = DIRECTION ( 'NONE',  ( -1.000000000000000000, 0.0000000000000000000, 0.0000000000000000000 ) ) ;
#270 = ADVANCED_BREP_SHAPE_REPRESENTATION ( '4342-E0W', ( #289, #215 ), #136 ) ;
#271 = AXIS2_PLACEMENT_3D ( 'NONE', #118, #77, #181 ) ;
#272 = CALENDAR_DATE ( 2015, 17, 6 ) ;
#273 = ORIENTED_EDGE ( 'NONE', *, *, #40, .T. ) ;
#274 = COORDINATED_UNIVERSAL_TIME_OFFSET ( 5, 0, .BEHIND. ) ;
#275 = EDGE_CURVE ( 'NONE', #107, #90, #316, .T. ) ;
#276 = CARTESIAN_POINT ( 'NONE',  ( -4.000000000000000000, 4.898587196589412800E-016, 0.2272173585919756200 ) ) ;
#277 = DIRECTION ( 'NONE',  ( 1.000000000000000000, 0.0000000000000000000, 0.0000000000000000000 ) ) ;
#278 = CONICAL_SURFACE ( 'NONE', #235, 4.000000000000000000, 0.7853981633974500600 ) ;
#279 = ORIENTED_EDGE ( 'NONE', *, *, #242, .F. ) ;
#280 = CC_DESIGN_APPROVAL ( #264, ( #247 ) ) ;
#281 = APPLICATION_PROTOCOL_DEFINITION ( 'international standard', 'config_control_design', 1994, #113 ) ;
#282 = LINE ( 'NONE', #299, #32 ) ;
#283 = CALENDAR_DATE ( 2015, 17, 6 ) ;
#284 = LINE ( 'NONE', #177, #250 ) ;
#285 = DIRECTION ( 'NONE',  ( -0.0000000000000000000, -0.0000000000000000000, 1.000000000000000000 ) ) ;
#286 = VECTOR ( 'NONE', #285, 1000.000000000000000 ) ;
#287 = ADVANCED_FACE ( 'NONE', ( #196 ), #295, .F. ) ;
#288 = AXIS2_PLACEMENT_3D ( 'NONE', #135, #310, #224 ) ;
#289 = MANIFOLD_SOLID_BREP ( '4342-001-1-solid1', #63 ) ;
#290 = EDGE_LOOP ( 'NONE', ( #149, #65, #240, #34, #123 ) ) ;
#291 = ORIENTED_EDGE ( 'NONE', *, *, #315, .T. ) ;
#292 = DIRECTION ( 'NONE',  ( 0.0000000000000000000, 1.000000000000000000, 0.0000000000000000000 ) ) ;
#293 = PRODUCT ( '4342-E0W', '4342-E0W', '', ( #207 ) ) ;
#294 = CARTESIAN_POINT ( 'NONE',  ( 0.0000000000000000000, 0.0000000000000000000, -1.772782641408024300 ) ) ;
#295 = PLANE ( 'NONE',  #106 ) ;
#296 = DIRECTION ( 'NONE',  ( 0.0000000000000000000, 0.0000000000000000000, -1.000000000000000000 ) ) ;
#297 = EDGE_CURVE ( 'NONE', #90, #107, #221, .T. ) ;
#298 =( NAMED_UNIT ( * ) SI_UNIT ( $, .STERADIAN. ) SOLID_ANGLE_UNIT ( ) );
#299 = CARTESIAN_POINT ( 'NONE',  ( -4.000000000000000000, 4.898587196589412800E-016, -1.522782641408023400 ) ) ;
#300 = SPHERICAL_SURFACE ( 'NONE', #2, 5.500000000000005300 ) ;
#301 = CIRCLE ( 'NONE', #205, 3.749999999999998200 ) ;
#302 = CC_DESIGN_PERSON_AND_ORGANIZATION_ASSIGNMENT ( #234, #184, ( #247 ) ) ;
#303 = CARTESIAN_POINT ( 'NONE',  ( 0.0000000000000000000, 0.0000000000000000000, 0.0000000000000000000 ) ) ;
#304 = LOCAL_TIME ( 16, 53, 5.000000000000000000, #274 ) ;
#305 = CARTESIAN_POINT ( 'NONE',  ( -4.000000000000000000, 4.898587196589412800E-016, -1.522782641408023400 ) ) ;
#306 = DESIGN_CONTEXT ( 'detailed design', #50, 'design' ) ;
#307 = DIRECTION ( 'NONE',  ( 1.000000000000000000, 0.0000000000000000000, 0.0000000000000000000 ) ) ;
#308 = ORIENTED_EDGE ( 'NONE', *, *, #74, .F. ) ;
#309 = AXIS2_PLACEMENT_3D ( 'NONE', #145, #214, #8 ) ;
#310 = DIRECTION ( 'NONE',  ( -0.0000000000000000000, -0.0000000000000000000, 1.000000000000000000 ) ) ;
#311 = CARTESIAN_POINT ( 'NONE',  ( 0.0000000000000000000, 3.367778697655224500E-016, 0.2272173585919764800 ) ) ;
#312 = ORIENTED_EDGE ( 'NONE', *, *, #40, .F. ) ;
#313 = CARTESIAN_POINT ( 'NONE',  ( 0.0000000000000000000, 0.0000000000000000000, -1.522782641408023400 ) ) ;
#314 = CARTESIAN_POINT ( 'NONE',  ( 0.0000000000000000000, 0.0000000000000000000, 5.727217358591981400 ) ) ;
#315 = EDGE_CURVE ( 'NONE', #22, #236, #88, .T. ) ;
#316 = CIRCLE ( 'NONE', #53, 4.000000000000000000 ) ;
#317 = DIRECTION ( 'NONE',  ( -1.000000000000000000, 0.0000000000000000000, 0.0000000000000000000 ) ) ;
#318 = ADVANCED_FACE ( 'NONE', ( #41 ), #243, .F. ) ;
#319 = CC_DESIGN_DATE_AND_TIME_ASSIGNMENT ( #139, #5, ( #247 ) ) ;
#320 = APPROVAL_PERSON_ORGANIZATION ( #61, #147, #105 ) ;
#321 = ORIENTED_EDGE ( 'NONE', *, *, #58, .T. ) ;
ENDSEC;
END-ISO-10303-21;
