ISO-10303-21;
HEADER;
FILE_DESCRIPTION (( 'STEP AP203' ),
    '1' );
FILE_NAME ('Web Model 37689_38993.step',
    '2018-10-18T19:44:01',
    ( '' ),
    ( '' ),
    'SwSTEP 2.0',
    'SolidWorks 2016',
    '' );
FILE_SCHEMA (( 'CONFIG_CONTROL_DESIGN' ));
ENDSEC;

DATA;
#1 = CARTESIAN_POINT ( 'NONE',  ( 12.69999999999999900, 1.555301434917138400E-015, 3.174999999999999800 ) ) ;
#2 = SECURITY_CLASSIFICATION ( '', '', #137 ) ;
#3 = CYLINDRICAL_SURFACE ( 'NONE', #58, 12.69999999999999900 ) ;
#4 = DIRECTION ( 'NONE',  ( 1.000000000000000000, 0.0000000000000000000, 0.0000000000000000000 ) ) ;
#5 = COORDINATED_UNIVERSAL_TIME_OFFSET ( 5, 0, .BEHIND. ) ;
#6 = CC_DESIGN_SECURITY_CLASSIFICATION ( #2, ( #18 ) ) ;
#7 = PERSON_AND_ORGANIZATION_ROLE ( 'design_owner' ) ;
#8 = DIRECTION ( 'NONE',  ( 1.000000000000000000, 0.0000000000000000000, 0.0000000000000000000 ) ) ;
#9 = APPLICATION_PROTOCOL_DEFINITION ( 'international standard', 'config_control_design', 1994, #173 ) ;
#10 = AXIS2_PLACEMENT_3D ( 'NONE', #33, #43, #47 ) ;
#11 = EDGE_LOOP ( 'NONE', ( #142, #133, #141, #165 ) ) ;
#12 = CC_DESIGN_PERSON_AND_ORGANIZATION_ASSIGNMENT ( #116, #145, ( #125 ) ) ;
#13 = APPLICATION_CONTEXT ( 'configuration controlled 3d designs of mechanical parts and assemblies' ) ;
#14 = VECTOR ( 'NONE', #83, 1000.000000000000000 ) ;
#15 = PERSON_AND_ORGANIZATION ( #112, #37 ) ;
#16 = DIRECTION ( 'NONE',  ( -0.0000000000000000000, -0.0000000000000000000, -1.000000000000000000 ) ) ;
#17 = FACE_OUTER_BOUND ( 'NONE', #82, .T. ) ;
#18 = PRODUCT_DEFINITION_FORMATION_WITH_SPECIFIED_SOURCE ( 'ANY', '', #148, .NOT_KNOWN. ) ;
#19 = APPROVAL_DATE_TIME ( #100, #154 ) ;
#20 = CIRCLE ( 'NONE', #117, 12.69999999999999900 ) ;
#21 = EDGE_CURVE ( 'NONE', #175, #170, #20, .T. ) ;
#22 = LOCAL_TIME ( 15, 44, 1.000000000000000000, #64 ) ;
#23 = CALENDAR_DATE ( 2018, 18, 10 ) ;
#24 = EDGE_LOOP ( 'NONE', ( #31, #156 ) ) ;
#25 =( LENGTH_UNIT ( ) NAMED_UNIT ( * ) SI_UNIT ( .MILLI., .METRE. ) );
#26 = ADVANCED_FACE ( 'NONE', ( #17 ), #3, .T. ) ;
#27 = LOCAL_TIME ( 15, 44, 1.000000000000000000, #32 ) ;
#28 = APPROVAL ( #119, 'UNSPECIFIED' ) ;
#29 = ORIENTED_EDGE ( 'NONE', *, *, #92, .F. ) ;
#30 =( GEOMETRIC_REPRESENTATION_CONTEXT ( 3 ) GLOBAL_UNCERTAINTY_ASSIGNED_CONTEXT ( ( #151 ) ) GLOBAL_UNIT_ASSIGNED_CONTEXT ( ( #25, #108, #60 ) ) REPRESENTATION_CONTEXT ( 'NONE', 'WORKASPACE' ) );
#31 = ORIENTED_EDGE ( 'NONE', *, *, #21, .T. ) ;
#32 = COORDINATED_UNIVERSAL_TIME_OFFSET ( 5, 0, .BEHIND. ) ;
#33 = CARTESIAN_POINT ( 'NONE',  ( 0.0000000000000000000, 0.0000000000000000000, 3.174999999999999800 ) ) ;
#34 = CC_DESIGN_DATE_AND_TIME_ASSIGNMENT ( #122, #51, ( #2 ) ) ;
#35 = DIRECTION ( 'NONE',  ( 0.0000000000000000000, 0.0000000000000000000, 1.000000000000000000 ) ) ;
#36 = DATE_TIME_ROLE ( 'creation_date' ) ;
#37 = ORGANIZATION ( 'UNSPECIFIED', 'UNSPECIFIED', '' ) ;
#38 = EDGE_CURVE ( 'NONE', #170, #175, #62, .T. ) ;
#39 = APPLICATION_PROTOCOL_DEFINITION ( 'international standard', 'config_control_design', 1994, #13 ) ;
#40 = LINE ( 'NONE', #86, #161 ) ;
#41 = CC_DESIGN_APPROVAL ( #44, ( #2 ) ) ;
#42 = ORIENTED_EDGE ( 'NONE', *, *, #38, .F. ) ;
#43 = DIRECTION ( 'NONE',  ( 0.0000000000000000000, 0.0000000000000000000, 1.000000000000000000 ) ) ;
#44 = APPROVAL ( #144, 'UNSPECIFIED' ) ;
#45 = MECHANICAL_CONTEXT ( 'NONE', #13, 'mechanical' ) ;
#46 = CARTESIAN_POINT ( 'NONE',  ( 12.69999999999999900, 1.555301434917138400E-015, 3.174999999999999800 ) ) ;
#47 = DIRECTION ( 'NONE',  ( 1.000000000000000000, 0.0000000000000000000, 0.0000000000000000000 ) ) ;
#48 = COORDINATED_UNIVERSAL_TIME_OFFSET ( 5, 0, .BEHIND. ) ;
#49 = FACE_OUTER_BOUND ( 'NONE', #24, .T. ) ;
#50 = CARTESIAN_POINT ( 'NONE',  ( 0.0000000000000000000, 0.0000000000000000000, -3.174999999999999800 ) ) ;
#51 = DATE_TIME_ROLE ( 'classification_date' ) ;
#52 = CC_DESIGN_PERSON_AND_ORGANIZATION_ASSIGNMENT ( #105, #7, ( #148 ) ) ;
#53 = DIRECTION ( 'NONE',  ( 1.000000000000000000, 0.0000000000000000000, 0.0000000000000000000 ) ) ;
#54 = ADVANCED_FACE ( 'NONE', ( #128 ), #91, .T. ) ;
#55 = CIRCLE ( 'NONE', #140, 12.69999999999999900 ) ;
#56 = APPROVAL_ROLE ( '' ) ;
#57 = PERSON_AND_ORGANIZATION_ROLE ( 'design_supplier' ) ;
#58 = AXIS2_PLACEMENT_3D ( 'NONE', #63, #16, #147 ) ;
#59 = PERSON_AND_ORGANIZATION ( #112, #37 ) ;
#60 =( NAMED_UNIT ( * ) SI_UNIT ( $, .STERADIAN. ) SOLID_ANGLE_UNIT ( ) );
#61 = EDGE_CURVE ( 'NONE', #170, #101, #146, .T. ) ;
#62 = CIRCLE ( 'NONE', #10, 12.69999999999999900 ) ;
#63 = CARTESIAN_POINT ( 'NONE',  ( 0.0000000000000000000, 0.0000000000000000000, 3.174999999999999800 ) ) ;
#64 = COORDINATED_UNIVERSAL_TIME_OFFSET ( 5, 0, .BEHIND. ) ;
#65 = CC_DESIGN_PERSON_AND_ORGANIZATION_ASSIGNMENT ( #15, #160, ( #2 ) ) ;
#66 = ORIENTED_EDGE ( 'NONE', *, *, #102, .F. ) ;
#67 = CARTESIAN_POINT ( 'NONE',  ( 0.0000000000000000000, 0.0000000000000000000, -3.174999999999999800 ) ) ;
#68 = CARTESIAN_POINT ( 'NONE',  ( 12.69999999999999900, 1.555301434917138400E-015, -3.174999999999999800 ) ) ;
#69 = PERSON_AND_ORGANIZATION ( #112, #37 ) ;
#70 = EDGE_CURVE ( 'NONE', #101, #123, #55, .T. ) ;
#71 = AXIS2_PLACEMENT_3D ( 'NONE', #136, #172, #8 ) ;
#72 = ADVANCED_FACE ( 'NONE', ( #49 ), #114, .T. ) ;
#73 = CARTESIAN_POINT ( 'NONE',  ( -12.69999999999999900, 0.0000000000000000000, 3.174999999999999800 ) ) ;
#74 = LOCAL_TIME ( 15, 44, 1.000000000000000000, #164 ) ;
#75 = DIRECTION ( 'NONE',  ( 0.0000000000000000000, 0.0000000000000000000, 1.000000000000000000 ) ) ;
#76 = ADVANCED_FACE ( 'NONE', ( #152 ), #94, .F. ) ;
#77 = CC_DESIGN_PERSON_AND_ORGANIZATION_ASSIGNMENT ( #69, #57, ( #18 ) ) ;
#78 = PERSON_AND_ORGANIZATION_ROLE ( 'creator' ) ;
#79 = DATE_AND_TIME ( #88, #149 ) ;
#80 = CARTESIAN_POINT ( 'NONE',  ( 0.0000000000000000000, 0.0000000000000000000, 3.174999999999999800 ) ) ;
#81 = DESIGN_CONTEXT ( 'detailed design', #173, 'design' ) ;
#82 = EDGE_LOOP ( 'NONE', ( #42, #93, #97, #29 ) ) ;
#83 = DIRECTION ( 'NONE',  ( -0.0000000000000000000, -0.0000000000000000000, -1.000000000000000000 ) ) ;
#84 = DIRECTION ( 'NONE',  ( 0.0000000000000000000, 0.0000000000000000000, 1.000000000000000000 ) ) ;
#85 = AXIS2_PLACEMENT_3D ( 'NONE', #153, #75, #158 ) ;
#86 = CARTESIAN_POINT ( 'NONE',  ( -12.69999999999999900, 0.0000000000000000000, 3.174999999999999800 ) ) ;
#87 = CARTESIAN_POINT ( 'NONE',  ( 0.0000000000000000000, 0.0000000000000000000, 0.0000000000000000000 ) ) ;
#88 = CALENDAR_DATE ( 2018, 18, 10 ) ;
#89 = PRODUCT_RELATED_PRODUCT_CATEGORY ( 'detail', '', ( #148 ) ) ;
#90 = PERSON_AND_ORGANIZATION ( #112, #37 ) ;
#91 = CYLINDRICAL_SURFACE ( 'NONE', #129, 12.69999999999999900 ) ;
#92 = EDGE_CURVE ( 'NONE', #175, #123, #40, .T. ) ;
#93 = ORIENTED_EDGE ( 'NONE', *, *, #61, .T. ) ;
#94 = PLANE ( 'NONE',  #104 ) ;
#95 = APPROVAL_ROLE ( '' ) ;
#96 = APPROVAL_DATE_TIME ( #138, #28 ) ;
#97 = ORIENTED_EDGE ( 'NONE', *, *, #70, .T. ) ;
#98 = AXIS2_PLACEMENT_3D ( 'NONE', #87, #84, #4 ) ;
#99 = SHAPE_DEFINITION_REPRESENTATION ( #113, #124 ) ;
#100 = DATE_AND_TIME ( #134, #74 ) ;
#101 = VERTEX_POINT ( 'NONE', #68 ) ;
#102 = EDGE_CURVE ( 'NONE', #123, #101, #150, .T. ) ;
#103 = MANIFOLD_SOLID_BREP ( 'Boss-Extrude1', #106 ) ;
#104 = AXIS2_PLACEMENT_3D ( 'NONE', #50, #35, #162 ) ;
#105 = PERSON_AND_ORGANIZATION ( #112, #37 ) ;
#106 = CLOSED_SHELL ( 'NONE', ( #26, #54, #72, #76 ) ) ;
#107 = APPROVAL_DATE_TIME ( #79, #44 ) ;
#108 =( NAMED_UNIT ( * ) PLANE_ANGLE_UNIT ( ) SI_UNIT ( $, .RADIAN. ) );
#109 = EDGE_LOOP ( 'NONE', ( #66, #139 ) ) ;
#110 = APPROVAL_PERSON_ORGANIZATION ( #90, #44, #95 ) ;
#111 = APPROVAL_STATUS ( 'not_yet_approved' ) ;
#112 = PERSON ( 'UNSPECIFIED', 'UNSPECIFIED', 'UNSPECIFIED', ('UNSPECIFIED'), ('UNSPECIFIED'), ('UNSPECIFIED') ) ;
#113 = PRODUCT_DEFINITION_SHAPE ( 'NONE', 'NONE',  #125 ) ;
#114 = PLANE ( 'NONE',  #85 ) ;
#115 = DIRECTION ( 'NONE',  ( -0.0000000000000000000, -0.0000000000000000000, -1.000000000000000000 ) ) ;
#116 = PERSON_AND_ORGANIZATION ( #112, #37 ) ;
#117 = AXIS2_PLACEMENT_3D ( 'NONE', #80, #167, #126 ) ;
#118 = DIRECTION ( 'NONE',  ( -0.0000000000000000000, -0.0000000000000000000, -1.000000000000000000 ) ) ;
#119 = APPROVAL_STATUS ( 'not_yet_approved' ) ;
#120 = CC_DESIGN_PERSON_AND_ORGANIZATION_ASSIGNMENT ( #59, #78, ( #18 ) ) ;
#121 = APPROVAL_ROLE ( '' ) ;
#122 = DATE_AND_TIME ( #155, #169 ) ;
#123 = VERTEX_POINT ( 'NONE', #157 ) ;
#124 = ADVANCED_BREP_SHAPE_REPRESENTATION ( 'Web Model 37689_38993', ( #103, #98 ), #30 ) ;
#125 = PRODUCT_DEFINITION ( 'UNKNOWN', '', #18, #81 ) ;
#126 = DIRECTION ( 'NONE',  ( 1.000000000000000000, 0.0000000000000000000, 0.0000000000000000000 ) ) ;
#127 = CALENDAR_DATE ( 2018, 18, 10 ) ;
#128 = FACE_OUTER_BOUND ( 'NONE', #11, .T. ) ;
#129 = AXIS2_PLACEMENT_3D ( 'NONE', #132, #115, #130 ) ;
#130 = DIRECTION ( 'NONE',  ( -1.000000000000000000, 0.0000000000000000000, 0.0000000000000000000 ) ) ;
#131 = PERSON_AND_ORGANIZATION ( #112, #37 ) ;
#132 = CARTESIAN_POINT ( 'NONE',  ( 0.0000000000000000000, 0.0000000000000000000, 3.174999999999999800 ) ) ;
#133 = ORIENTED_EDGE ( 'NONE', *, *, #21, .F. ) ;
#134 = CALENDAR_DATE ( 2018, 18, 10 ) ;
#135 = DIRECTION ( 'NONE',  ( 0.0000000000000000000, 0.0000000000000000000, 1.000000000000000000 ) ) ;
#136 = CARTESIAN_POINT ( 'NONE',  ( 0.0000000000000000000, 0.0000000000000000000, -3.174999999999999800 ) ) ;
#137 = SECURITY_CLASSIFICATION_LEVEL ( 'unclassified' ) ;
#138 = DATE_AND_TIME ( #127, #22 ) ;
#139 = ORIENTED_EDGE ( 'NONE', *, *, #70, .F. ) ;
#140 = AXIS2_PLACEMENT_3D ( 'NONE', #67, #135, #53 ) ;
#141 = ORIENTED_EDGE ( 'NONE', *, *, #92, .T. ) ;
#142 = ORIENTED_EDGE ( 'NONE', *, *, #61, .F. ) ;
#143 = CC_DESIGN_APPROVAL ( #28, ( #18 ) ) ;
#144 = APPROVAL_STATUS ( 'not_yet_approved' ) ;
#145 = PERSON_AND_ORGANIZATION_ROLE ( 'creator' ) ;
#146 = LINE ( 'NONE', #46, #14 ) ;
#147 = DIRECTION ( 'NONE',  ( -1.000000000000000000, 0.0000000000000000000, 0.0000000000000000000 ) ) ;
#148 = PRODUCT ( 'Web Model 37689_38993', 'Web Model 37689_38993', '', ( #45 ) ) ;
#149 = LOCAL_TIME ( 15, 44, 1.000000000000000000, #48 ) ;
#150 = CIRCLE ( 'NONE', #71, 12.69999999999999900 ) ;
#151 = UNCERTAINTY_MEASURE_WITH_UNIT (LENGTH_MEASURE( 1.000000000000000100E-005 ), #25, 'distance_accuracy_value', 'NONE');
#152 = FACE_OUTER_BOUND ( 'NONE', #109, .T. ) ;
#153 = CARTESIAN_POINT ( 'NONE',  ( 0.0000000000000000000, 0.0000000000000000000, 3.174999999999999800 ) ) ;
#154 = APPROVAL ( #111, 'UNSPECIFIED' ) ;
#155 = CALENDAR_DATE ( 2018, 18, 10 ) ;
#156 = ORIENTED_EDGE ( 'NONE', *, *, #38, .T. ) ;
#157 = CARTESIAN_POINT ( 'NONE',  ( -12.69999999999999900, 0.0000000000000000000, -3.174999999999999800 ) ) ;
#158 = DIRECTION ( 'NONE',  ( 1.000000000000000000, 0.0000000000000000000, -0.0000000000000000000 ) ) ;
#159 = DATE_AND_TIME ( #23, #27 ) ;
#160 = PERSON_AND_ORGANIZATION_ROLE ( 'classification_officer' ) ;
#161 = VECTOR ( 'NONE', #118, 1000.000000000000000 ) ;
#162 = DIRECTION ( 'NONE',  ( 1.000000000000000000, 0.0000000000000000000, -0.0000000000000000000 ) ) ;
#163 = CC_DESIGN_APPROVAL ( #154, ( #125 ) ) ;
#164 = COORDINATED_UNIVERSAL_TIME_OFFSET ( 5, 0, .BEHIND. ) ;
#165 = ORIENTED_EDGE ( 'NONE', *, *, #102, .T. ) ;
#166 = CC_DESIGN_DATE_AND_TIME_ASSIGNMENT ( #159, #36, ( #125 ) ) ;
#167 = DIRECTION ( 'NONE',  ( 0.0000000000000000000, 0.0000000000000000000, 1.000000000000000000 ) ) ;
#168 = PERSON_AND_ORGANIZATION ( #112, #37 ) ;
#169 = LOCAL_TIME ( 15, 44, 1.000000000000000000, #5 ) ;
#170 = VERTEX_POINT ( 'NONE', #1 ) ;
#171 = APPROVAL_PERSON_ORGANIZATION ( #131, #28, #56 ) ;
#172 = DIRECTION ( 'NONE',  ( 0.0000000000000000000, 0.0000000000000000000, 1.000000000000000000 ) ) ;
#173 = APPLICATION_CONTEXT ( 'configuration controlled 3d designs of mechanical parts and assemblies' ) ;
#174 = APPROVAL_PERSON_ORGANIZATION ( #168, #154, #121 ) ;
#175 = VERTEX_POINT ( 'NONE', #73 ) ;
ENDSEC;
END-ISO-10303-21;
