ISO-10303-21;
HEADER;
FILE_DESCRIPTION (( 'STEP AP214' ),
    '1' );
FILE_NAME ('4495-E0W.STEP',
    '2009-12-21T17:06:41',
    ( ' ' ),
    ( ' ' ),
    'SwSTEP 2.0',
    'SolidWorks 2009',
    '' );
FILE_SCHEMA (( 'AUTOMOTIVE_DESIGN' ));
ENDSEC;

DATA;
#1 = ORIENTED_EDGE ( 'NONE', *, *, #259, .T. ) ;
#2 = UNCERTAINTY_MEASURE_WITH_UNIT (LENGTH_MEASURE( 1.000000000000000100E-005 ), #199, 'distance_accuracy_value', 'NONE');
#3 = VERTEX_POINT ( 'NONE', #25 ) ;
#4 = ORIENTED_EDGE ( 'NONE', *, *, #238, .F. ) ;
#5 = ORIENTED_EDGE ( 'NONE', *, *, #22, .F. ) ;
#6 = CLOSED_SHELL ( 'NONE', ( #21, #20, #250, #10, #17 ) ) ;
#7 = EDGE_CURVE ( 'NONE', #241, #8, #26, .T. ) ;
#8 = VERTEX_POINT ( 'NONE', #33 ) ;
#9 = VERTEX_POINT ( 'NONE', #32 ) ;
#10 = ADVANCED_FACE ( 'NONE', ( #31 ), #73, .T. ) ;
#11 = ORIENTED_EDGE ( 'NONE', *, *, #237, .T. ) ;
#12 = ORIENTED_EDGE ( 'NONE', *, *, #7, .T. ) ;
#13 = ORIENTED_EDGE ( 'NONE', *, *, #240, .T. ) ;
#14 = EDGE_LOOP ( 'NONE', ( #15, #16, #243, #244, #245 ) ) ;
#15 = ORIENTED_EDGE ( 'NONE', *, *, #240, .F. ) ;
#16 = ORIENTED_EDGE ( 'NONE', *, *, #242, .T. ) ;
#17 = ADVANCED_FACE ( 'NONE', ( #54 ), #55, .F. ) ;
#18 = ORIENTED_EDGE ( 'NONE', *, *, #238, .T. ) ;
#19 = ORIENTED_EDGE ( 'NONE', *, *, #256, .T. ) ;
#20 = ADVANCED_FACE ( 'NONE', ( #49 ), #83, .T. ) ;
#21 = ADVANCED_FACE ( 'NONE', ( #85 ), #121, .T. ) ;
#22 = EDGE_CURVE ( 'NONE', #247, #9, #112, .T. ) ;
#23 = ORIENTED_EDGE ( 'NONE', *, *, #254, .F. ) ;
#24 = ORIENTED_EDGE ( 'NONE', *, *, #242, .F. ) ;
#25 = CARTESIAN_POINT ( 'NONE',  ( 0.0000000000000000000, 12.70000000000001000, 0.2045181303125813700 ) ) ;
#26 = CIRCLE ( 'NONE', #29, 12.69999999999999800 ) ;
#27 = DIRECTION ( 'NONE',  ( -0.0000000000000000000, -0.0000000000000000000, 1.000000000000000000 ) ) ;
#28 = CARTESIAN_POINT ( 'NONE',  ( 0.0000000000000000000, 0.0000000000000000000, 0.2045181303125817900 ) ) ;
#29 = AXIS2_PLACEMENT_3D ( 'NONE', #28, #27, #34 ) ;
#30 = COLOUR_RGB ( '',0.9568627450980391500, 0.9490196078431372100, 0.9607843137254902200 ) ;
#31 = FACE_OUTER_BOUND ( 'NONE', #14, .T. ) ;
#32 = CARTESIAN_POINT ( 'NONE',  ( 12.69999999999999800, 0.0000000000000000000, 0.2045181303125817900 ) ) ;
#33 = CARTESIAN_POINT ( 'NONE',  ( -1.555250069354420500E-015, -12.70000000000001000, 0.2045181303125813700 ) ) ;
#34 = DIRECTION ( 'NONE',  ( 1.000000000000000000, 0.0000000000000000000, 0.0000000000000000000 ) ) ;
#35 = MECHANICAL_DESIGN_GEOMETRIC_PRESENTATION_REPRESENTATION (  '', ( #42 ), #67 ) ;
#36 = UNCERTAINTY_MEASURE_WITH_UNIT (LENGTH_MEASURE( 1.000000000000000100E-005 ), #47, 'distance_accuracy_value', 'NONE');
#37 = PRESENTATION_LAYER_ASSIGNMENT (  '', '', ( #42 ) ) ;
#38 = FILL_AREA_STYLE ('',( #39 ) ) ;
#39 = FILL_AREA_STYLE_COLOUR ( '', #30 ) ;
#40 = SURFACE_STYLE_FILL_AREA ( #38 ) ;
#41 = SURFACE_STYLE_USAGE ( .BOTH. , #43 ) ;
#42 = STYLED_ITEM ( 'NONE', ( #45 ), #10 ) ;
#43 = SURFACE_SIDE_STYLE ('',( #40 ) ) ;
#44 =( NAMED_UNIT ( * ) SI_UNIT ( $, .STERADIAN. ) SOLID_ANGLE_UNIT ( ) );
#45 = PRESENTATION_STYLE_ASSIGNMENT (( #41 ) ) ;
#46 =( NAMED_UNIT ( * ) PLANE_ANGLE_UNIT ( ) SI_UNIT ( $, .RADIAN. ) );
#47 =( LENGTH_UNIT ( ) NAMED_UNIT ( * ) SI_UNIT ( .MILLI., .METRE. ) );
#48 = FILL_AREA_STYLE_COLOUR ( '', #86 ) ;
#49 = FACE_OUTER_BOUND ( 'NONE', #239, .T. ) ;
#50 = DIRECTION ( 'NONE',  ( 1.000000000000000000, 0.0000000000000000000, 0.0000000000000000000 ) ) ;
#51 = SURFACE_SIDE_STYLE ('',( #63 ) ) ;
#52 = UNCERTAINTY_MEASURE_WITH_UNIT (LENGTH_MEASURE( 1.000000000000000100E-005 ), #61, 'distance_accuracy_value', 'NONE');
#53 = CARTESIAN_POINT ( 'NONE',  ( 0.0000000000000000000, 0.0000000000000000000, 4.308132045400366600 ) ) ;
#54 = FACE_OUTER_BOUND ( 'NONE', #246, .T. ) ;
#55 = PLANE ( 'NONE',  #60 ) ;
#56 = FILL_AREA_STYLE ('',( #48 ) ) ;
#57 = STYLED_ITEM ( 'NONE', ( #69 ), #17 ) ;
#58 = DIRECTION ( 'NONE',  ( -0.0000000000000000000, -0.0000000000000000000, 1.000000000000000000 ) ) ;
#59 = CARTESIAN_POINT ( 'NONE',  ( 0.0000000000000000000, 6.594723013408496800E-016, -1.795000000000000200 ) ) ;
#60 = AXIS2_PLACEMENT_3D ( 'NONE', #59, #62, #50 ) ;
#61 =( LENGTH_UNIT ( ) NAMED_UNIT ( * ) SI_UNIT ( .MILLI., .METRE. ) );
#62 = DIRECTION ( 'NONE',  ( 0.0000000000000000000, -0.0000000000000000000, 1.000000000000000000 ) ) ;
#63 = SURFACE_STYLE_FILL_AREA ( #56 ) ;
#64 = SURFACE_SIDE_STYLE ('',( #65 ) ) ;
#65 = SURFACE_STYLE_FILL_AREA ( #66 ) ;
#66 = FILL_AREA_STYLE ('',( #71 ) ) ;
#67 =( GEOMETRIC_REPRESENTATION_CONTEXT ( 3 ) GLOBAL_UNCERTAINTY_ASSIGNED_CONTEXT ( ( #36 ) ) GLOBAL_UNIT_ASSIGNED_CONTEXT ( ( #47, #46, #44 ) ) REPRESENTATION_CONTEXT ( 'NONE', 'WORKASPACE' ) );
#68 = MECHANICAL_DESIGN_GEOMETRIC_PRESENTATION_REPRESENTATION (  '', ( #57 ), #104 ) ;
#69 = PRESENTATION_STYLE_ASSIGNMENT (( #87 ) ) ;
#70 =( GEOMETRIC_REPRESENTATION_CONTEXT ( 3 ) GLOBAL_UNCERTAINTY_ASSIGNED_CONTEXT ( ( #80 ) ) GLOBAL_UNIT_ASSIGNED_CONTEXT ( ( #105, #107, #90 ) ) REPRESENTATION_CONTEXT ( 'NONE', 'WORKASPACE' ) );
#71 = FILL_AREA_STYLE_COLOUR ( '', #72 ) ;
#72 = COLOUR_RGB ( '',0.9568627450980391500, 0.9490196078431372100, 0.9607843137254902200 ) ;
#73 = CYLINDRICAL_SURFACE ( 'NONE', #75, 12.69999999999999900 ) ;
#74 = MECHANICAL_DESIGN_GEOMETRIC_PRESENTATION_REPRESENTATION (  '', ( #89 ), #70 ) ;
#75 = AXIS2_PLACEMENT_3D ( 'NONE', #53, #58, #103 ) ;
#76 =( LENGTH_UNIT ( ) NAMED_UNIT ( * ) SI_UNIT ( .MILLI., .METRE. ) );
#77 = MECHANICAL_DESIGN_GEOMETRIC_PRESENTATION_REPRESENTATION (  '', ( #94 ), #130 ) ;
#78 = PRESENTATION_LAYER_ASSIGNMENT (  '', '', ( #94 ) ) ;
#79 = PRESENTATION_LAYER_ASSIGNMENT (  '', '', ( #57 ) ) ;
#80 = UNCERTAINTY_MEASURE_WITH_UNIT (LENGTH_MEASURE( 1.000000000000000100E-005 ), #105, 'distance_accuracy_value', 'NONE');
#81 = CARTESIAN_POINT ( 'NONE',  ( 0.0000000000000000000, 0.0000000000000000000, -49.70499999999999800 ) ) ;
#82 = AXIS2_PLACEMENT_3D ( 'NONE', #81, #102, #101 ) ;
#83 = SPHERICAL_SURFACE ( 'NONE', #82, 51.50000000000000700 ) ;
#84 = COLOUR_RGB ( '',0.9568627450980391500, 0.9490196078431372100, 0.9607843137254902200 ) ;
#85 = FACE_OUTER_BOUND ( 'NONE', #248, .T. ) ;
#86 = COLOUR_RGB ( '',0.9568627450980391500, 0.9490196078431372100, 0.9607843137254902200 ) ;
#87 = SURFACE_STYLE_USAGE ( .BOTH. , #51 ) ;
#88 = PRESENTATION_LAYER_ASSIGNMENT (  '', '', ( #89 ) ) ;
#89 = STYLED_ITEM ( 'NONE', ( #91 ), #20 ) ;
#90 =( NAMED_UNIT ( * ) SI_UNIT ( $, .STERADIAN. ) SOLID_ANGLE_UNIT ( ) );
#91 = PRESENTATION_STYLE_ASSIGNMENT (( #92 ) ) ;
#92 = SURFACE_STYLE_USAGE ( .BOTH. , #64 ) ;
#93 =( NAMED_UNIT ( * ) PLANE_ANGLE_UNIT ( ) SI_UNIT ( $, .RADIAN. ) );
#94 = STYLED_ITEM ( 'NONE', ( #95 ), #21 ) ;
#95 = PRESENTATION_STYLE_ASSIGNMENT (( #96 ) ) ;
#96 = SURFACE_STYLE_USAGE ( .BOTH. , #97 ) ;
#97 = SURFACE_SIDE_STYLE ('',( #98 ) ) ;
#98 = SURFACE_STYLE_FILL_AREA ( #99 ) ;
#99 = FILL_AREA_STYLE ('',( #100 ) ) ;
#100 = FILL_AREA_STYLE_COLOUR ( '', #84 ) ;
#101 = DIRECTION ( 'NONE',  ( 0.0000000000000000000, 1.000000000000000000, 0.0000000000000000000 ) ) ;
#102 = DIRECTION ( 'NONE',  ( -1.000000000000000000, 0.0000000000000000000, 0.0000000000000000000 ) ) ;
#103 = DIRECTION ( 'NONE',  ( 1.000000000000000000, 0.0000000000000000000, 0.0000000000000000000 ) ) ;
#104 =( GEOMETRIC_REPRESENTATION_CONTEXT ( 3 ) GLOBAL_UNCERTAINTY_ASSIGNED_CONTEXT ( ( #52 ) ) GLOBAL_UNIT_ASSIGNED_CONTEXT ( ( #61, #93, #106 ) ) REPRESENTATION_CONTEXT ( 'NONE', 'WORKASPACE' ) );
#105 =( LENGTH_UNIT ( ) NAMED_UNIT ( * ) SI_UNIT ( .MILLI., .METRE. ) );
#106 =( NAMED_UNIT ( * ) SI_UNIT ( $, .STERADIAN. ) SOLID_ANGLE_UNIT ( ) );
#107 =( NAMED_UNIT ( * ) PLANE_ANGLE_UNIT ( ) SI_UNIT ( $, .RADIAN. ) );
#108 = DIRECTION ( 'NONE',  ( -0.0000000000000000000, -0.0000000000000000000, 1.000000000000000000 ) ) ;
#109 = CARTESIAN_POINT ( 'NONE',  ( 12.69999999999999900, 0.0000000000000000000, -1.794999999999999700 ) ) ;
#110 = VECTOR ( 'NONE', #108, 1000.000000000000000 ) ;
#111 = CARTESIAN_POINT ( 'NONE',  ( 12.69999999999999900, 0.0000000000000000000, 4.308132045400366600 ) ) ;
#112 = LINE ( 'NONE', #111, #110 ) ;
#113 =( NAMED_UNIT ( * ) PLANE_ANGLE_UNIT ( ) SI_UNIT ( $, .RADIAN. ) );
#114 = DIRECTION ( 'NONE',  ( 1.000000000000000000, 0.0000000000000000000, 0.0000000000000000000 ) ) ;
#115 = DIRECTION ( 'NONE',  ( -0.0000000000000000000, -0.0000000000000000000, 1.000000000000000000 ) ) ;
#116 = DIRECTION ( 'NONE',  ( -0.0000000000000000000, -0.0000000000000000000, 1.000000000000000000 ) ) ;
#117 = CARTESIAN_POINT ( 'NONE',  ( 0.0000000000000000000, 0.0000000000000000000, 0.2045181303125817900 ) ) ;
#118 = AXIS2_PLACEMENT_3D ( 'NONE', #117, #116, #148 ) ;
#119 = CIRCLE ( 'NONE', #118, 12.69999999999999800 ) ;
#120 = CARTESIAN_POINT ( 'NONE',  ( -12.69999999999999900, 1.555250069354419100E-015, 4.308132045400366600 ) ) ;
#121 = CYLINDRICAL_SURFACE ( 'NONE', #136, 12.69999999999999900 ) ;
#122 = PRESENTATION_STYLE_ASSIGNMENT (( #123 ) ) ;
#123 = SURFACE_STYLE_USAGE ( .BOTH. , #124 ) ;
#124 = SURFACE_SIDE_STYLE ('',( #125 ) ) ;
#125 = SURFACE_STYLE_FILL_AREA ( #126 ) ;
#126 = FILL_AREA_STYLE ('',( #127 ) ) ;
#127 = FILL_AREA_STYLE_COLOUR ( '', #128 ) ;
#128 = COLOUR_RGB ( '',0.9568627450980391500, 0.9490196078431372100, 0.9607843137254902200 ) ;
#129 = FACE_OUTER_BOUND ( 'NONE', #260, .T. ) ;
#130 =( GEOMETRIC_REPRESENTATION_CONTEXT ( 3 ) GLOBAL_UNCERTAINTY_ASSIGNED_CONTEXT ( ( #131 ) ) GLOBAL_UNIT_ASSIGNED_CONTEXT ( ( #76, #113, #149 ) ) REPRESENTATION_CONTEXT ( 'NONE', 'WORKASPACE' ) );
#131 = UNCERTAINTY_MEASURE_WITH_UNIT (LENGTH_MEASURE( 1.000000000000000100E-005 ), #76, 'distance_accuracy_value', 'NONE');
#132 = CARTESIAN_POINT ( 'NONE',  ( -12.69999999999999800, 1.555250069354418900E-015, 0.2045181303125817900 ) ) ;
#133 = DIRECTION ( 'NONE',  ( -0.0000000000000000000, -0.0000000000000000000, 1.000000000000000000 ) ) ;
#134 = VECTOR ( 'NONE', #133, 1000.000000000000000 ) ;
#135 = CARTESIAN_POINT ( 'NONE',  ( 0.0000000000000000000, 0.0000000000000000000, 4.308132045400366600 ) ) ;
#136 = AXIS2_PLACEMENT_3D ( 'NONE', #135, #115, #114 ) ;
#137 = CARTESIAN_POINT ( 'NONE',  ( 0.0000000000000000000, 0.0000000000000000000, 0.2045181303125817900 ) ) ;
#138 = AXIS2_PLACEMENT_3D ( 'NONE', #137, #141, #140 ) ;
#139 = CIRCLE ( 'NONE', #138, 12.69999999999999800 ) ;
#140 = DIRECTION ( 'NONE',  ( 1.000000000000000000, 0.0000000000000000000, 0.0000000000000000000 ) ) ;
#141 = DIRECTION ( 'NONE',  ( -0.0000000000000000000, -0.0000000000000000000, 1.000000000000000000 ) ) ;
#142 = DIRECTION ( 'NONE',  ( 1.000000000000000000, 0.0000000000000000000, 0.0000000000000000000 ) ) ;
#143 = DIRECTION ( 'NONE',  ( -0.0000000000000000000, -0.0000000000000000000, 1.000000000000000000 ) ) ;
#144 = CARTESIAN_POINT ( 'NONE',  ( 0.0000000000000000000, 0.0000000000000000000, -1.794999999999999700 ) ) ;
#145 = AXIS2_PLACEMENT_3D ( 'NONE', #144, #143, #142 ) ;
#146 = CIRCLE ( 'NONE', #145, 12.69999999999999900 ) ;
#147 = LINE ( 'NONE', #120, #134 ) ;
#148 = DIRECTION ( 'NONE',  ( 1.000000000000000000, 0.0000000000000000000, 0.0000000000000000000 ) ) ;
#149 =( NAMED_UNIT ( * ) SI_UNIT ( $, .STERADIAN. ) SOLID_ANGLE_UNIT ( ) );
#150 = MECHANICAL_DESIGN_GEOMETRIC_PRESENTATION_REPRESENTATION (  '', ( #154 ), #156 ) ;
#151 = PRESENTATION_LAYER_ASSIGNMENT (  '', '', ( #154 ) ) ;
#152 = UNCERTAINTY_MEASURE_WITH_UNIT (LENGTH_MEASURE( 1.000000000000000100E-005 ), #153, 'distance_accuracy_value', 'NONE');
#153 =( LENGTH_UNIT ( ) NAMED_UNIT ( * ) SI_UNIT ( .MILLI., .METRE. ) );
#154 = STYLED_ITEM ( 'NONE', ( #122 ), #250 ) ;
#155 =( NAMED_UNIT ( * ) PLANE_ANGLE_UNIT ( ) SI_UNIT ( $, .RADIAN. ) );
#156 =( GEOMETRIC_REPRESENTATION_CONTEXT ( 3 ) GLOBAL_UNCERTAINTY_ASSIGNED_CONTEXT ( ( #152 ) ) GLOBAL_UNIT_ASSIGNED_CONTEXT ( ( #153, #155, #157 ) ) REPRESENTATION_CONTEXT ( 'NONE', 'WORKASPACE' ) );
#157 =( NAMED_UNIT ( * ) SI_UNIT ( $, .STERADIAN. ) SOLID_ANGLE_UNIT ( ) );
#158 = PRODUCT_DEFINITION_SHAPE ( 'NONE', 'NONE',  #227 ) ;
#159 = CARTESIAN_POINT ( 'NONE',  ( 0.0000000000000000000, 0.0000000000000000000, -1.794999999999999700 ) ) ;
#160 = CARTESIAN_POINT ( 'NONE',  ( -12.69999999999999900, 1.555250069354419100E-015, -1.794999999999999700 ) ) ;
#161 = CIRCLE ( 'NONE', #167, 12.69999999999999900 ) ;
#162 = AXIS2_PLACEMENT_3D ( 'NONE', #196, #195, #194 ) ;
#163 = CIRCLE ( 'NONE', #162, 51.50000000000000700 ) ;
#164 = AXIS2_PLACEMENT_3D ( 'NONE', #186, #173, #172 ) ;
#165 = CIRCLE ( 'NONE', #164, 51.50000000000000700 ) ;
#166 = DIRECTION ( 'NONE',  ( -0.0000000000000000000, -0.0000000000000000000, 1.000000000000000000 ) ) ;
#167 = AXIS2_PLACEMENT_3D ( 'NONE', #159, #183, #182 ) ;
#168 = PRESENTATION_STYLE_ASSIGNMENT (( #169 ) ) ;
#169 = SURFACE_STYLE_USAGE ( .BOTH. , #170 ) ;
#170 = SURFACE_SIDE_STYLE ('',( #202 ) ) ;
#171 = AXIS2_PLACEMENT_3D ( 'NONE', #190, #166, #189 ) ;
#172 = DIRECTION ( 'NONE',  ( 0.0000000000000000000, 0.0000000000000000000, -1.000000000000000000 ) ) ;
#173 = DIRECTION ( 'NONE',  ( 1.000000000000000000, 0.0000000000000000000, 0.0000000000000000000 ) ) ;
#174 = DIRECTION ( 'NONE',  ( -1.000000000000000000, 0.0000000000000000000, 0.0000000000000000000 ) ) ;
#175 = MECHANICAL_DESIGN_GEOMETRIC_PRESENTATION_REPRESENTATION (  '', ( #177 ), #184 ) ;
#176 = PRESENTATION_LAYER_ASSIGNMENT (  '', '', ( #177 ) ) ;
#177 = STYLED_ITEM ( 'NONE', ( #168 ), #261 ) ;
#178 = UNCERTAINTY_MEASURE_WITH_UNIT (LENGTH_MEASURE( 1.000000000000000100E-005 ), #181, 'distance_accuracy_value', 'NONE');
#179 = CARTESIAN_POINT ( 'NONE',  ( 0.0000000000000000000, 0.0000000000000000000, -49.70499999999999800 ) ) ;
#180 =( NAMED_UNIT ( * ) SI_UNIT ( $, .STERADIAN. ) SOLID_ANGLE_UNIT ( ) );
#181 =( LENGTH_UNIT ( ) NAMED_UNIT ( * ) SI_UNIT ( .MILLI., .METRE. ) );
#182 = DIRECTION ( 'NONE',  ( 1.000000000000000000, 0.0000000000000000000, 0.0000000000000000000 ) ) ;
#183 = DIRECTION ( 'NONE',  ( -0.0000000000000000000, -0.0000000000000000000, 1.000000000000000000 ) ) ;
#184 =( GEOMETRIC_REPRESENTATION_CONTEXT ( 3 ) GLOBAL_UNCERTAINTY_ASSIGNED_CONTEXT ( ( #178 ) ) GLOBAL_UNIT_ASSIGNED_CONTEXT ( ( #181, #191, #188 ) ) REPRESENTATION_CONTEXT ( 'NONE', 'WORKASPACE' ) );
#185 = SPHERICAL_SURFACE ( 'NONE', #197, 51.50000000000000700 ) ;
#186 = CARTESIAN_POINT ( 'NONE',  ( 0.0000000000000000000, 0.0000000000000000000, -49.70499999999999800 ) ) ;
#187 = COLOUR_RGB ( '',0.7960784313725489700, 0.8235294117647058400, 0.9372549019607843100 ) ;
#188 =( NAMED_UNIT ( * ) SI_UNIT ( $, .STERADIAN. ) SOLID_ANGLE_UNIT ( ) );
#189 = DIRECTION ( 'NONE',  ( 1.000000000000000000, 0.0000000000000000000, 0.0000000000000000000 ) ) ;
#190 = CARTESIAN_POINT ( 'NONE',  ( 0.0000000000000000000, 0.0000000000000000000, 0.2045181303125817900 ) ) ;
#191 =( NAMED_UNIT ( * ) PLANE_ANGLE_UNIT ( ) SI_UNIT ( $, .RADIAN. ) );
#192 = DIRECTION ( 'NONE',  ( 0.0000000000000000000, 1.000000000000000000, 0.0000000000000000000 ) ) ;
#193 = CARTESIAN_POINT ( 'NONE',  ( 0.0000000000000000000, 3.153361361092621800E-015, 1.795000000000004800 ) ) ;
#194 = DIRECTION ( 'NONE',  ( -1.224606353822377300E-016, -1.000000000000000000, 0.0000000000000000000 ) ) ;
#195 = DIRECTION ( 'NONE',  ( -1.000000000000000000, 1.224606353822377300E-016, 0.0000000000000000000 ) ) ;
#196 = CARTESIAN_POINT ( 'NONE',  ( 0.0000000000000000000, 0.0000000000000000000, -49.70499999999999800 ) ) ;
#197 = AXIS2_PLACEMENT_3D ( 'NONE', #179, #174, #192 ) ;
#198 =( NAMED_UNIT ( * ) PLANE_ANGLE_UNIT ( ) SI_UNIT ( $, .RADIAN. ) );
#199 =( LENGTH_UNIT ( ) NAMED_UNIT ( * ) SI_UNIT ( .MILLI., .METRE. ) );
#200 = SHAPE_DEFINITION_REPRESENTATION ( #158, #217 ) ;
#201 = CIRCLE ( 'NONE', #171, 12.69999999999999800 ) ;
#202 = SURFACE_STYLE_FILL_AREA ( #203 ) ;
#203 = FILL_AREA_STYLE ('',( #204 ) ) ;
#204 = FILL_AREA_STYLE_COLOUR ( '', #187 ) ;
#205 = DIRECTION ( 'NONE',  ( 0.0000000000000000000, 0.0000000000000000000, 1.000000000000000000 ) ) ;
#206 = MECHANICAL_DESIGN_GEOMETRIC_PRESENTATION_REPRESENTATION (  '', ( #220 ), #212 ) ;
#207 = DIRECTION ( 'NONE',  ( 1.000000000000000000, 0.0000000000000000000, 0.0000000000000000000 ) ) ;
#208 = SURFACE_STYLE_FILL_AREA ( #215 ) ;
#209 = SURFACE_SIDE_STYLE ('',( #208 ) ) ;
#210 = PRESENTATION_LAYER_ASSIGNMENT (  '', '', ( #220 ) ) ;
#211 = SURFACE_STYLE_USAGE ( .BOTH. , #209 ) ;
#212 =( GEOMETRIC_REPRESENTATION_CONTEXT ( 3 ) GLOBAL_UNCERTAINTY_ASSIGNED_CONTEXT ( ( #218 ) ) GLOBAL_UNIT_ASSIGNED_CONTEXT ( ( #214, #225, #216 ) ) REPRESENTATION_CONTEXT ( 'NONE', 'WORKASPACE' ) );
#213 =( GEOMETRIC_REPRESENTATION_CONTEXT ( 3 ) GLOBAL_UNCERTAINTY_ASSIGNED_CONTEXT ( ( #2 ) ) GLOBAL_UNIT_ASSIGNED_CONTEXT ( ( #199, #198, #180 ) ) REPRESENTATION_CONTEXT ( 'NONE', 'WORKASPACE' ) );
#214 =( LENGTH_UNIT ( ) NAMED_UNIT ( * ) SI_UNIT ( .MILLI., .METRE. ) );
#215 = FILL_AREA_STYLE ('',( #219 ) ) ;
#216 =( NAMED_UNIT ( * ) SI_UNIT ( $, .STERADIAN. ) SOLID_ANGLE_UNIT ( ) );
#217 = ADVANCED_BREP_SHAPE_REPRESENTATION ( '4495-E0W', ( #261, #224 ), #213 ) ;
#218 = UNCERTAINTY_MEASURE_WITH_UNIT (LENGTH_MEASURE( 1.000000000000000100E-005 ), #214, 'distance_accuracy_value', 'NONE');
#219 = FILL_AREA_STYLE_COLOUR ( '', #221 ) ;
#220 = STYLED_ITEM ( 'NONE', ( #222 ), #217 ) ;
#221 = COLOUR_RGB ( '',0.7960784313725489700, 0.8235294117647058400, 0.9372549019607843100 ) ;
#222 = PRESENTATION_STYLE_ASSIGNMENT (( #211 ) ) ;
#223 = CARTESIAN_POINT ( 'NONE',  ( 0.0000000000000000000, 0.0000000000000000000, 0.0000000000000000000 ) ) ;
#224 = AXIS2_PLACEMENT_3D ( 'NONE', #223, #205, #207 ) ;
#225 =( NAMED_UNIT ( * ) PLANE_ANGLE_UNIT ( ) SI_UNIT ( $, .RADIAN. ) );
#226 = APPLICATION_CONTEXT ( 'automotive_design' ) ;
#227 = PRODUCT_DEFINITION ( 'UNKNOWN', '', #232, #228 ) ;
#228 = PRODUCT_DEFINITION_CONTEXT ( 'detailed design', #230, 'design' ) ;
#229 = APPLICATION_PROTOCOL_DEFINITION ( 'draft international standard', 'automotive_design', 1998, #230 ) ;
#230 = APPLICATION_CONTEXT ( 'automotive_design' ) ;
#231 = PRODUCT_RELATED_PRODUCT_CATEGORY ( 'part', '', ( #235 ) ) ;
#232 = PRODUCT_DEFINITION_FORMATION_WITH_SPECIFIED_SOURCE ( 'ANY', '', #235, .NOT_KNOWN. ) ;
#233 = PRODUCT_CONTEXT ( 'NONE', #226, 'mechanical' ) ;
#234 = APPLICATION_PROTOCOL_DEFINITION ( 'draft international standard', 'automotive_design', 1998, #226 ) ;
#235 = PRODUCT ( '4495-E0W', '4495-E0W', '', ( #233 ) ) ;
#236 = ORIENTED_EDGE ( 'NONE', *, *, #237, .F. ) ;
#237 = EDGE_CURVE ( 'NONE', #3, #241, #139, .T. ) ;
#238 = EDGE_CURVE ( 'NONE', #9, #3, #119, .T. ) ;
#239 = EDGE_LOOP ( 'NONE', ( #11, #12, #19, #258 ) ) ;
#240 = EDGE_CURVE ( 'NONE', #255, #241, #147, .T. ) ;
#241 = VERTEX_POINT ( 'NONE', #132 ) ;
#242 = EDGE_CURVE ( 'NONE', #255, #247, #146, .T. ) ;
#243 = ORIENTED_EDGE ( 'NONE', *, *, #22, .T. ) ;
#244 = ORIENTED_EDGE ( 'NONE', *, *, #253, .F. ) ;
#245 = ORIENTED_EDGE ( 'NONE', *, *, #7, .F. ) ;
#246 = EDGE_LOOP ( 'NONE', ( #23, #24 ) ) ;
#247 = VERTEX_POINT ( 'NONE', #109 ) ;
#248 = EDGE_LOOP ( 'NONE', ( #249, #13, #236, #4, #5 ) ) ;
#249 = ORIENTED_EDGE ( 'NONE', *, *, #254, .T. ) ;
#250 = ADVANCED_FACE ( 'NONE', ( #129 ), #185, .T. ) ;
#251 = ORIENTED_EDGE ( 'NONE', *, *, #256, .F. ) ;
#252 = ORIENTED_EDGE ( 'NONE', *, *, #253, .T. ) ;
#253 = EDGE_CURVE ( 'NONE', #8, #9, #201, .T. ) ;
#254 = EDGE_CURVE ( 'NONE', #247, #255, #161, .T. ) ;
#255 = VERTEX_POINT ( 'NONE', #160 ) ;
#256 = EDGE_CURVE ( 'NONE', #8, #257, #163, .T. ) ;
#257 = VERTEX_POINT ( 'NONE', #193 ) ;
#258 = ORIENTED_EDGE ( 'NONE', *, *, #259, .F. ) ;
#259 = EDGE_CURVE ( 'NONE', #3, #257, #165, .T. ) ;
#260 = EDGE_LOOP ( 'NONE', ( #251, #252, #18, #1 ) ) ;
#261 = MANIFOLD_SOLID_BREP ( 'NONE', #6 ) ;
ENDSEC;
END-ISO-10303-21;
