ISO-10303-21;
HEADER;
FILE_DESCRIPTION (( 'STEP AP203' ),
    '1' );
FILE_NAME ('Web Model 47521.STEP',
    '2017-01-31T15:20:47',
    ( '' ),
    ( '' ),
    'SwSTEP 2.0',
    'SolidWorks 2016',
    '' );
FILE_SCHEMA (( 'CONFIG_CONTROL_DESIGN' ));
ENDSEC;

DATA;
#1 = FACE_OUTER_BOUND ( 'NONE', #88, .T. ) ;
#2 = COORDINATED_UNIVERSAL_TIME_OFFSET ( 5, 0, .BEHIND. ) ;
#3 = APPROVAL_DATE_TIME ( #20, #168 ) ;
#4 = CIRCLE ( 'NONE', #69, 15.00000000000000000 ) ;
#5 = PERSON_AND_ORGANIZATION ( #117, #143 ) ;
#6 = AXIS2_PLACEMENT_3D ( 'NONE', #55, #42, #14 ) ;
#7 = APPROVAL_PERSON_ORGANIZATION ( #91, #172, #112 ) ;
#8 = CYLINDRICAL_SURFACE ( 'NONE', #105, 15.00000000000000000 ) ;
#9 = CC_DESIGN_APPROVAL ( #172, ( #56 ) ) ;
#10 = DIRECTION ( 'NONE',  ( 0.0000000000000000000, 0.0000000000000000000, 1.000000000000000000 ) ) ;
#11 = DIRECTION ( 'NONE',  ( 0.0000000000000000000, 0.0000000000000000000, 1.000000000000000000 ) ) ;
#12 = CARTESIAN_POINT ( 'NONE',  ( 0.0000000000000000000, 0.0000000000000000000, -4.000000000000000000 ) ) ;
#13 = PERSON_AND_ORGANIZATION ( #117, #143 ) ;
#14 = DIRECTION ( 'NONE',  ( 1.000000000000000000, 0.0000000000000000000, -0.0000000000000000000 ) ) ;
#15 = DIRECTION ( 'NONE',  ( 1.000000000000000000, 0.0000000000000000000, 0.0000000000000000000 ) ) ;
#16 = PERSON_AND_ORGANIZATION ( #117, #143 ) ;
#17 = EDGE_CURVE ( 'NONE', #147, #123, #4, .T. ) ;
#18 = DATE_AND_TIME ( #146, #59 ) ;
#19 = CALENDAR_DATE ( 2017, 31, 1 ) ;
#20 = DATE_AND_TIME ( #22, #114 ) ;
#21 = ORIENTED_EDGE ( 'NONE', *, *, #32, .F. ) ;
#22 = CALENDAR_DATE ( 2017, 31, 1 ) ;
#23 = APPROVAL_STATUS ( 'not_yet_approved' ) ;
#24 = LOCAL_TIME ( 10, 20, 47.00000000000000000, #2 ) ;
#25 = DIRECTION ( 'NONE',  ( 1.000000000000000000, 0.0000000000000000000, 0.0000000000000000000 ) ) ;
#26 = DIRECTION ( 'NONE',  ( 1.000000000000000000, 0.0000000000000000000, 0.0000000000000000000 ) ) ;
#27 = CARTESIAN_POINT ( 'NONE',  ( 0.0000000000000000000, 0.0000000000000000000, -4.000000000000000000 ) ) ;
#28 = AXIS2_PLACEMENT_3D ( 'NONE', #156, #10, #25 ) ;
#29 = ORIENTED_EDGE ( 'NONE', *, *, #119, .T. ) ;
#30 = FACE_OUTER_BOUND ( 'NONE', #149, .T. ) ;
#31 = DIRECTION ( 'NONE',  ( 0.0000000000000000000, 0.0000000000000000000, 1.000000000000000000 ) ) ;
#32 = EDGE_CURVE ( 'NONE', #73, #142, #47, .T. ) ;
#33 = ORIENTED_EDGE ( 'NONE', *, *, #17, .F. ) ;
#34 = FACE_OUTER_BOUND ( 'NONE', #104, .T. ) ;
#35 = COORDINATED_UNIVERSAL_TIME_OFFSET ( 5, 0, .BEHIND. ) ;
#36 = CALENDAR_DATE ( 2017, 31, 1 ) ;
#37 = COORDINATED_UNIVERSAL_TIME_OFFSET ( 5, 0, .BEHIND. ) ;
#38 = PERSON_AND_ORGANIZATION_ROLE ( 'creator' ) ;
#39 = AXIS2_PLACEMENT_3D ( 'NONE', #86, #100, #167 ) ;
#40 = DIRECTION ( 'NONE',  ( 1.000000000000000000, 0.0000000000000000000, 0.0000000000000000000 ) ) ;
#41 = APPROVAL_STATUS ( 'not_yet_approved' ) ;
#42 = DIRECTION ( 'NONE',  ( 0.0000000000000000000, 0.0000000000000000000, 1.000000000000000000 ) ) ;
#43 = VECTOR ( 'NONE', #115, 1000.000000000000000 ) ;
#44 = ADVANCED_FACE ( 'NONE', ( #79 ), #8, .T. ) ;
#45 = DATE_AND_TIME ( #150, #116 ) ;
#46 = AXIS2_PLACEMENT_3D ( 'NONE', #85, #11, #26 ) ;
#47 = CIRCLE ( 'NONE', #126, 15.00000000000000000 ) ;
#48 = APPROVAL_DATE_TIME ( #62, #172 ) ;
#49 = PERSON_AND_ORGANIZATION_ROLE ( 'creator' ) ;
#50 = EDGE_CURVE ( 'NONE', #73, #123, #58, .T. ) ;
#51 = ORIENTED_EDGE ( 'NONE', *, *, #128, .F. ) ;
#52 = COORDINATED_UNIVERSAL_TIME_OFFSET ( 5, 0, .BEHIND. ) ;
#53 = CARTESIAN_POINT ( 'NONE',  ( 0.0000000000000000000, 0.0000000000000000000, -4.000000000000000000 ) ) ;
#54 = ORIENTED_EDGE ( 'NONE', *, *, #50, .T. ) ;
#55 = CARTESIAN_POINT ( 'NONE',  ( 0.0000000000000000000, 0.0000000000000000000, 0.0000000000000000000 ) ) ;
#56 = PRODUCT_DEFINITION ( 'UNKNOWN', '', #71, #67 ) ;
#57 = UNCERTAINTY_MEASURE_WITH_UNIT (LENGTH_MEASURE( 1.000000000000000100E-005 ), #65, 'distance_accuracy_value', 'NONE');
#58 = LINE ( 'NONE', #68, #43 ) ;
#59 = LOCAL_TIME ( 10, 20, 47.00000000000000000, #35 ) ;
#60 = SHAPE_DEFINITION_REPRESENTATION ( #111, #107 ) ;
#61 = COORDINATED_UNIVERSAL_TIME_OFFSET ( 5, 0, .BEHIND. ) ;
#62 = DATE_AND_TIME ( #36, #24 ) ;
#63 = APPROVAL_STATUS ( 'not_yet_approved' ) ;
#64 = PERSON_AND_ORGANIZATION_ROLE ( 'design_supplier' ) ;
#65 =( LENGTH_UNIT ( ) NAMED_UNIT ( * ) SI_UNIT ( .MILLI., .METRE. ) );
#66 = CC_DESIGN_PERSON_AND_ORGANIZATION_ASSIGNMENT ( #5, #38, ( #56 ) ) ;
#67 = DESIGN_CONTEXT ( 'detailed design', #140, 'design' ) ;
#68 = CARTESIAN_POINT ( 'NONE',  ( -15.00000000000000000, 1.836970198721029600E-015, -4.000000000000000000 ) ) ;
#69 = AXIS2_PLACEMENT_3D ( 'NONE', #141, #103, #161 ) ;
#70 = ADVANCED_FACE ( 'NONE', ( #30 ), #76, .T. ) ;
#71 = PRODUCT_DEFINITION_FORMATION_WITH_SPECIFIED_SOURCE ( 'ANY', '', #89, .NOT_KNOWN. ) ;
#72 = CC_DESIGN_DATE_AND_TIME_ASSIGNMENT ( #153, #136, ( #56 ) ) ;
#73 = VERTEX_POINT ( 'NONE', #74 ) ;
#74 = CARTESIAN_POINT ( 'NONE',  ( -15.00000000000000000, 1.836970198721029600E-015, -4.000000000000000000 ) ) ;
#75 = APPROVAL ( #63, 'UNSPECIFIED' ) ;
#76 = PLANE ( 'NONE',  #6 ) ;
#77 = CARTESIAN_POINT ( 'NONE',  ( 0.0000000000000000000, 0.0000000000000000000, -4.000000000000000000 ) ) ;
#78 = CLOSED_SHELL ( 'NONE', ( #122, #44, #163, #70 ) ) ;
#79 = FACE_OUTER_BOUND ( 'NONE', #138, .T. ) ;
#80 = MANIFOLD_SOLID_BREP ( 'Extrude1', #78 ) ;
#81 = PERSON_AND_ORGANIZATION ( #117, #143 ) ;
#82 = CC_DESIGN_PERSON_AND_ORGANIZATION_ASSIGNMENT ( #120, #49, ( #71 ) ) ;
#83 = LOCAL_TIME ( 10, 20, 47.00000000000000000, #37 ) ;
#84 = SECURITY_CLASSIFICATION_LEVEL ( 'unclassified' ) ;
#85 = CARTESIAN_POINT ( 'NONE',  ( 0.0000000000000000000, 0.0000000000000000000, 0.0000000000000000000 ) ) ;
#86 = CARTESIAN_POINT ( 'NONE',  ( 0.0000000000000000000, 0.0000000000000000000, -4.000000000000000000 ) ) ;
#87 = CC_DESIGN_APPROVAL ( #75, ( #71 ) ) ;
#88 = EDGE_LOOP ( 'NONE', ( #29, #54, #33, #51 ) ) ;
#89 = PRODUCT ( 'Web Model 47521', 'Web Model 47521', '', ( #129 ) ) ;
#90 = CARTESIAN_POINT ( 'NONE',  ( -15.00000000000000000, 1.836970198721029600E-015, 0.0000000000000000000 ) ) ;
#91 = PERSON_AND_ORGANIZATION ( #117, #143 ) ;
#92 = DIRECTION ( 'NONE',  ( 0.0000000000000000000, 0.0000000000000000000, 1.000000000000000000 ) ) ;
#93 = DIRECTION ( 'NONE',  ( 1.000000000000000000, 0.0000000000000000000, 0.0000000000000000000 ) ) ;
#94 = AXIS2_PLACEMENT_3D ( 'NONE', #77, #92, #15 ) ;
#95 = CARTESIAN_POINT ( 'NONE',  ( 15.00000000000000000, 0.0000000000000000000, -4.000000000000000000 ) ) ;
#96 = ORIENTED_EDGE ( 'NONE', *, *, #145, .T. ) ;
#97 = CC_DESIGN_SECURITY_CLASSIFICATION ( #98, ( #71 ) ) ;
#98 = SECURITY_CLASSIFICATION ( '', '', #84 ) ;
#99 = ORIENTED_EDGE ( 'NONE', *, *, #145, .F. ) ;
#100 = DIRECTION ( 'NONE',  ( 0.0000000000000000000, 0.0000000000000000000, 1.000000000000000000 ) ) ;
#101 = CIRCLE ( 'NONE', #28, 15.00000000000000000 ) ;
#102 = APPLICATION_PROTOCOL_DEFINITION ( 'international standard', 'config_control_design', 1994, #140 ) ;
#103 = DIRECTION ( 'NONE',  ( 0.0000000000000000000, 0.0000000000000000000, 1.000000000000000000 ) ) ;
#104 = EDGE_LOOP ( 'NONE', ( #164, #21 ) ) ;
#105 = AXIS2_PLACEMENT_3D ( 'NONE', #12, #31, #40 ) ;
#106 = ORIENTED_EDGE ( 'NONE', *, *, #17, .T. ) ;
#107 = ADVANCED_BREP_SHAPE_REPRESENTATION ( 'Web Model 47521', ( #80, #46 ), #144 ) ;
#108 = ORIENTED_EDGE ( 'NONE', *, *, #32, .T. ) ;
#109 = VECTOR ( 'NONE', #154, 1000.000000000000000 ) ;
#110 = APPROVAL_PERSON_ORGANIZATION ( #13, #75, #152 ) ;
#111 = PRODUCT_DEFINITION_SHAPE ( 'NONE', 'NONE',  #56 ) ;
#112 = APPROVAL_ROLE ( '' ) ;
#113 = CC_DESIGN_PERSON_AND_ORGANIZATION_ASSIGNMENT ( #81, #64, ( #71 ) ) ;
#114 = LOCAL_TIME ( 10, 20, 47.00000000000000000, #61 ) ;
#115 = DIRECTION ( 'NONE',  ( 0.0000000000000000000, 0.0000000000000000000, 1.000000000000000000 ) ) ;
#116 = LOCAL_TIME ( 10, 20, 47.00000000000000000, #52 ) ;
#117 = PERSON ( 'UNSPECIFIED', 'UNSPECIFIED', 'UNSPECIFIED', ('UNSPECIFIED'), ('UNSPECIFIED'), ('UNSPECIFIED') ) ;
#118 = DIRECTION ( 'NONE',  ( 0.0000000000000000000, 0.0000000000000000000, 1.000000000000000000 ) ) ;
#119 = EDGE_CURVE ( 'NONE', #142, #73, #135, .T. ) ;
#120 = PERSON_AND_ORGANIZATION ( #117, #143 ) ;
#121 = CC_DESIGN_APPROVAL ( #168, ( #98 ) ) ;
#122 = ADVANCED_FACE ( 'NONE', ( #1 ), #132, .T. ) ;
#123 = VERTEX_POINT ( 'NONE', #90 ) ;
#124 = AXIS2_PLACEMENT_3D ( 'NONE', #27, #118, #93 ) ;
#125 = PERSON_AND_ORGANIZATION_ROLE ( 'design_owner' ) ;
#126 = AXIS2_PLACEMENT_3D ( 'NONE', #53, #131, #173 ) ;
#127 =( NAMED_UNIT ( * ) PLANE_ANGLE_UNIT ( ) SI_UNIT ( $, .RADIAN. ) );
#128 = EDGE_CURVE ( 'NONE', #142, #147, #170, .T. ) ;
#129 = MECHANICAL_CONTEXT ( 'NONE', #169, 'mechanical' ) ;
#130 = DATE_TIME_ROLE ( 'classification_date' ) ;
#131 = DIRECTION ( 'NONE',  ( 0.0000000000000000000, 0.0000000000000000000, 1.000000000000000000 ) ) ;
#132 = CYLINDRICAL_SURFACE ( 'NONE', #124, 15.00000000000000000 ) ;
#133 = CC_DESIGN_PERSON_AND_ORGANIZATION_ASSIGNMENT ( #165, #125, ( #89 ) ) ;
#134 = ORIENTED_EDGE ( 'NONE', *, *, #50, .F. ) ;
#135 = CIRCLE ( 'NONE', #94, 15.00000000000000000 ) ;
#136 = DATE_TIME_ROLE ( 'creation_date' ) ;
#137 = CC_DESIGN_PERSON_AND_ORGANIZATION_ASSIGNMENT ( #157, #174, ( #98 ) ) ;
#138 = EDGE_LOOP ( 'NONE', ( #134, #108, #166, #99 ) ) ;
#139 = CARTESIAN_POINT ( 'NONE',  ( 15.00000000000000000, 0.0000000000000000000, 0.0000000000000000000 ) ) ;
#140 = APPLICATION_CONTEXT ( 'configuration controlled 3d designs of mechanical parts and assemblies' ) ;
#141 = CARTESIAN_POINT ( 'NONE',  ( 0.0000000000000000000, 0.0000000000000000000, 0.0000000000000000000 ) ) ;
#142 = VERTEX_POINT ( 'NONE', #95 ) ;
#143 = ORGANIZATION ( 'UNSPECIFIED', 'UNSPECIFIED', '' ) ;
#144 =( GEOMETRIC_REPRESENTATION_CONTEXT ( 3 ) GLOBAL_UNCERTAINTY_ASSIGNED_CONTEXT ( ( #57 ) ) GLOBAL_UNIT_ASSIGNED_CONTEXT ( ( #65, #127, #151 ) ) REPRESENTATION_CONTEXT ( 'NONE', 'WORKASPACE' ) );
#145 = EDGE_CURVE ( 'NONE', #123, #147, #101, .T. ) ;
#146 = CALENDAR_DATE ( 2017, 31, 1 ) ;
#147 = VERTEX_POINT ( 'NONE', #139 ) ;
#148 = APPROVAL_PERSON_ORGANIZATION ( #16, #168, #158 ) ;
#149 = EDGE_LOOP ( 'NONE', ( #106, #96 ) ) ;
#150 = CALENDAR_DATE ( 2017, 31, 1 ) ;
#151 =( NAMED_UNIT ( * ) SI_UNIT ( $, .STERADIAN. ) SOLID_ANGLE_UNIT ( ) );
#152 = APPROVAL_ROLE ( '' ) ;
#153 = DATE_AND_TIME ( #19, #83 ) ;
#154 = DIRECTION ( 'NONE',  ( 0.0000000000000000000, 0.0000000000000000000, 1.000000000000000000 ) ) ;
#155 = APPLICATION_PROTOCOL_DEFINITION ( 'international standard', 'config_control_design', 1994, #169 ) ;
#156 = CARTESIAN_POINT ( 'NONE',  ( 0.0000000000000000000, 0.0000000000000000000, 0.0000000000000000000 ) ) ;
#157 = PERSON_AND_ORGANIZATION ( #117, #143 ) ;
#158 = APPROVAL_ROLE ( '' ) ;
#159 = PRODUCT_RELATED_PRODUCT_CATEGORY ( 'detail', '', ( #89 ) ) ;
#160 = CC_DESIGN_DATE_AND_TIME_ASSIGNMENT ( #45, #130, ( #98 ) ) ;
#161 = DIRECTION ( 'NONE',  ( 1.000000000000000000, 0.0000000000000000000, 0.0000000000000000000 ) ) ;
#162 = APPROVAL_DATE_TIME ( #18, #75 ) ;
#163 = ADVANCED_FACE ( 'NONE', ( #34 ), #171, .F. ) ;
#164 = ORIENTED_EDGE ( 'NONE', *, *, #119, .F. ) ;
#165 = PERSON_AND_ORGANIZATION ( #117, #143 ) ;
#166 = ORIENTED_EDGE ( 'NONE', *, *, #128, .T. ) ;
#167 = DIRECTION ( 'NONE',  ( 1.000000000000000000, 0.0000000000000000000, -0.0000000000000000000 ) ) ;
#168 = APPROVAL ( #41, 'UNSPECIFIED' ) ;
#169 = APPLICATION_CONTEXT ( 'configuration controlled 3d designs of mechanical parts and assemblies' ) ;
#170 = LINE ( 'NONE', #175, #109 ) ;
#171 = PLANE ( 'NONE',  #39 ) ;
#172 = APPROVAL ( #23, 'UNSPECIFIED' ) ;
#173 = DIRECTION ( 'NONE',  ( 1.000000000000000000, 0.0000000000000000000, 0.0000000000000000000 ) ) ;
#174 = PERSON_AND_ORGANIZATION_ROLE ( 'classification_officer' ) ;
#175 = CARTESIAN_POINT ( 'NONE',  ( 15.00000000000000000, 0.0000000000000000000, -4.000000000000000000 ) ) ;
ENDSEC;
END-ISO-10303-21;
