ISO-10303-21;
HEADER;
FILE_DESCRIPTION (( 'STEP AP203' ),
    '1' );
FILE_NAME ('Web Model 46067_46069.step',
    '2017-07-13T13:27:13',
    ( '' ),
    ( '' ),
    'SwSTEP 2.0',
    'SolidWorks 2016',
    '' );
FILE_SCHEMA (( 'CONFIG_CONTROL_DESIGN' ));
ENDSEC;

DATA;
#1 = FACE_OUTER_BOUND ( 'NONE', #151, .T. ) ;
#2 = CARTESIAN_POINT ( 'NONE',  ( 6.349999999999999600, 6.349999999999999600, -1.500000000000000000 ) ) ;
#3 = VERTEX_POINT ( 'NONE', #31 ) ;
#4 =( LENGTH_UNIT ( ) NAMED_UNIT ( * ) SI_UNIT ( .MILLI., .METRE. ) );
#5 = EDGE_CURVE ( 'NONE', #105, #7, #96, .T. ) ;
#6 = ORIENTED_EDGE ( 'NONE', *, *, #156, .F. ) ;
#7 = VERTEX_POINT ( 'NONE', #212 ) ;
#8 = PERSON_AND_ORGANIZATION_ROLE ( 'design_owner' ) ;
#9 = APPROVAL_DATE_TIME ( #173, #210 ) ;
#10 = ORIENTED_EDGE ( 'NONE', *, *, #65, .F. ) ;
#11 = DATE_AND_TIME ( #141, #14 ) ;
#12 = ORIENTED_EDGE ( 'NONE', *, *, #57, .F. ) ;
#13 = ADVANCED_FACE ( 'NONE', ( #124 ), #82, .F. ) ;
#14 = LOCAL_TIME ( 9, 27, 13.00000000000000000, #20 ) ;
#15 = EDGE_CURVE ( 'NONE', #16, #105, #46, .T. ) ;
#16 = VERTEX_POINT ( 'NONE', #32 ) ;
#17 = PRODUCT_RELATED_PRODUCT_CATEGORY ( 'detail', '', ( #79 ) ) ;
#18 = CARTESIAN_POINT ( 'NONE',  ( -6.349999999999999600, -6.349999999999999600, 1.500000000000000000 ) ) ;
#19 = DIRECTION ( 'NONE',  ( 1.000000000000000000, 0.0000000000000000000, 0.0000000000000000000 ) ) ;
#20 = COORDINATED_UNIVERSAL_TIME_OFFSET ( 5, 0, .BEHIND. ) ;
#21 = PERSON_AND_ORGANIZATION_ROLE ( 'creator' ) ;
#22 = ORIENTED_EDGE ( 'NONE', *, *, #71, .T. ) ;
#23 = PERSON_AND_ORGANIZATION ( #182, #41 ) ;
#24 = ORIENTED_EDGE ( 'NONE', *, *, #120, .T. ) ;
#25 = ORIENTED_EDGE ( 'NONE', *, *, #35, .F. ) ;
#26 = SHAPE_DEFINITION_REPRESENTATION ( #229, #137 ) ;
#27 = AXIS2_PLACEMENT_3D ( 'NONE', #222, #69, #205 ) ;
#28 = ORIENTED_EDGE ( 'NONE', *, *, #65, .T. ) ;
#29 = AXIS2_PLACEMENT_3D ( 'NONE', #49, #19, #66 ) ;
#30 = APPROVAL_PERSON_ORGANIZATION ( #47, #92, #208 ) ;
#31 = CARTESIAN_POINT ( 'NONE',  ( 6.349999999999999600, -6.349999999999999600, 1.500000000000000000 ) ) ;
#32 = CARTESIAN_POINT ( 'NONE',  ( 6.349999999999999600, 6.349999999999999600, 1.500000000000000000 ) ) ;
#33 = LINE ( 'NONE', #104, #227 ) ;
#34 = DIRECTION ( 'NONE',  ( 0.0000000000000000000, -1.000000000000000000, 0.0000000000000000000 ) ) ;
#35 = EDGE_CURVE ( 'NONE', #3, #37, #189, .T. ) ;
#36 = PLANE ( 'NONE',  #132 ) ;
#37 = VERTEX_POINT ( 'NONE', #117 ) ;
#38 = DIRECTION ( 'NONE',  ( 1.000000000000000000, 0.0000000000000000000, 0.0000000000000000000 ) ) ;
#39 = LINE ( 'NONE', #214, #211 ) ;
#40 = PRODUCT_DEFINITION ( 'UNKNOWN', '', #218, #183 ) ;
#41 = ORGANIZATION ( 'UNSPECIFIED', 'UNSPECIFIED', '' ) ;
#42 = MECHANICAL_CONTEXT ( 'NONE', #202, 'mechanical' ) ;
#43 = PERSON_AND_ORGANIZATION_ROLE ( 'classification_officer' ) ;
#44 = DATE_TIME_ROLE ( 'creation_date' ) ;
#45 =( GEOMETRIC_REPRESENTATION_CONTEXT ( 3 ) GLOBAL_UNCERTAINTY_ASSIGNED_CONTEXT ( ( #170 ) ) GLOBAL_UNIT_ASSIGNED_CONTEXT ( ( #4, #126, #164 ) ) REPRESENTATION_CONTEXT ( 'NONE', 'WORKASPACE' ) );
#46 = LINE ( 'NONE', #101, #121 ) ;
#47 = PERSON_AND_ORGANIZATION ( #182, #41 ) ;
#48 = ADVANCED_FACE ( 'NONE', ( #52 ), #157, .F. ) ;
#49 = CARTESIAN_POINT ( 'NONE',  ( -6.349999999999999600, -6.349999999999999600, 1.500000000000000000 ) ) ;
#50 = ORIENTED_EDGE ( 'NONE', *, *, #147, .T. ) ;
#51 = CARTESIAN_POINT ( 'NONE',  ( -6.349999999999999600, -6.349999999999999600, -1.500000000000000000 ) ) ;
#52 = FACE_OUTER_BOUND ( 'NONE', #192, .T. ) ;
#53 = COORDINATED_UNIVERSAL_TIME_OFFSET ( 5, 0, .BEHIND. ) ;
#54 = COORDINATED_UNIVERSAL_TIME_OFFSET ( 5, 0, .BEHIND. ) ;
#55 = AXIS2_PLACEMENT_3D ( 'NONE', #146, #68, #127 ) ;
#56 = MANIFOLD_SOLID_BREP ( 'Boss-Extrude1', #169 ) ;
#57 = EDGE_CURVE ( 'NONE', #3, #16, #39, .T. ) ;
#58 = ORIENTED_EDGE ( 'NONE', *, *, #5, .F. ) ;
#59 = LOCAL_TIME ( 9, 27, 13.00000000000000000, #54 ) ;
#60 = DIRECTION ( 'NONE',  ( 0.0000000000000000000, 1.000000000000000000, 0.0000000000000000000 ) ) ;
#61 = ADVANCED_FACE ( 'NONE', ( #78 ), #216, .T. ) ;
#62 = CARTESIAN_POINT ( 'NONE',  ( 6.349999999999999600, -6.349999999999999600, 1.500000000000000000 ) ) ;
#63 = DIRECTION ( 'NONE',  ( -0.0000000000000000000, -0.0000000000000000000, -1.000000000000000000 ) ) ;
#64 = CALENDAR_DATE ( 2017, 13, 7 ) ;
#65 = EDGE_CURVE ( 'NONE', #7, #3, #108, .T. ) ;
#66 = DIRECTION ( 'NONE',  ( 0.0000000000000000000, 0.0000000000000000000, -1.000000000000000000 ) ) ;
#67 = LINE ( 'NONE', #123, #136 ) ;
#68 = DIRECTION ( 'NONE',  ( 0.0000000000000000000, 0.0000000000000000000, 1.000000000000000000 ) ) ;
#69 = DIRECTION ( 'NONE',  ( 0.0000000000000000000, 0.0000000000000000000, -1.000000000000000000 ) ) ;
#70 = ORIENTED_EDGE ( 'NONE', *, *, #57, .T. ) ;
#71 = EDGE_CURVE ( 'NONE', #139, #122, #80, .T. ) ;
#72 = APPROVAL_ROLE ( '' ) ;
#73 = FACE_OUTER_BOUND ( 'NONE', #97, .T. ) ;
#74 = PERSON_AND_ORGANIZATION ( #182, #41 ) ;
#75 = APPROVAL_ROLE ( '' ) ;
#76 = EDGE_LOOP ( 'NONE', ( #70, #112, #195, #28 ) ) ;
#77 = DATE_TIME_ROLE ( 'classification_date' ) ;
#78 = FACE_OUTER_BOUND ( 'NONE', #219, .T. ) ;
#79 = PRODUCT ( 'Web Model 46067_46069', 'Web Model 46067_46069', '', ( #42 ) ) ;
#80 = LINE ( 'NONE', #142, #230 ) ;
#81 = VECTOR ( 'NONE', #118, 1000.000000000000000 ) ;
#82 = PLANE ( 'NONE',  #213 ) ;
#83 = CC_DESIGN_PERSON_AND_ORGANIZATION_ASSIGNMENT ( #215, #21, ( #40 ) ) ;
#84 = CC_DESIGN_PERSON_AND_ORGANIZATION_ASSIGNMENT ( #232, #8, ( #79 ) ) ;
#85 = PLANE ( 'NONE',  #27 ) ;
#86 = DIRECTION ( 'NONE',  ( 1.000000000000000000, 0.0000000000000000000, 0.0000000000000000000 ) ) ;
#87 = ORIENTED_EDGE ( 'NONE', *, *, #175, .T. ) ;
#88 = APPROVAL_STATUS ( 'not_yet_approved' ) ;
#89 = APPLICATION_PROTOCOL_DEFINITION ( 'international standard', 'config_control_design', 1994, #110 ) ;
#90 = PERSON_AND_ORGANIZATION ( #182, #41 ) ;
#91 = LINE ( 'NONE', #51, #135 ) ;
#92 = APPROVAL ( #149, 'UNSPECIFIED' ) ;
#93 = SECURITY_CLASSIFICATION ( '', '', #226 ) ;
#94 = EDGE_CURVE ( 'NONE', #105, #122, #131, .T. ) ;
#95 = ADVANCED_FACE ( 'NONE', ( #73 ), #36, .F. ) ;
#96 = LINE ( 'NONE', #177, #81 ) ;
#97 = EDGE_LOOP ( 'NONE', ( #100, #204, #12, #225 ) ) ;
#98 = DIRECTION ( 'NONE',  ( 0.0000000000000000000, -0.0000000000000000000, 1.000000000000000000 ) ) ;
#99 = EDGE_LOOP ( 'NONE', ( #50, #25, #10, #190 ) ) ;
#100 = ORIENTED_EDGE ( 'NONE', *, *, #125, .T. ) ;
#101 = CARTESIAN_POINT ( 'NONE',  ( -6.349999999999999600, 6.349999999999999600, 1.500000000000000000 ) ) ;
#102 = AXIS2_PLACEMENT_3D ( 'NONE', #236, #34, #154 ) ;
#103 = DIRECTION ( 'NONE',  ( 0.0000000000000000000, 1.000000000000000000, 0.0000000000000000000 ) ) ;
#104 = CARTESIAN_POINT ( 'NONE',  ( -6.349999999999999600, -6.349999999999999600, -1.500000000000000000 ) ) ;
#105 = VERTEX_POINT ( 'NONE', #184 ) ;
#106 = DIRECTION ( 'NONE',  ( -0.0000000000000000000, -0.0000000000000000000, -1.000000000000000000 ) ) ;
#107 = DIRECTION ( 'NONE',  ( -0.0000000000000000000, -0.0000000000000000000, -1.000000000000000000 ) ) ;
#108 = LINE ( 'NONE', #18, #223 ) ;
#109 = CARTESIAN_POINT ( 'NONE',  ( -6.349999999999999600, -6.349999999999999600, -1.500000000000000000 ) ) ;
#110 = APPLICATION_CONTEXT ( 'configuration controlled 3d designs of mechanical parts and assemblies' ) ;
#111 = CC_DESIGN_PERSON_AND_ORGANIZATION_ASSIGNMENT ( #23, #43, ( #93 ) ) ;
#112 = ORIENTED_EDGE ( 'NONE', *, *, #15, .T. ) ;
#113 = ORIENTED_EDGE ( 'NONE', *, *, #94, .T. ) ;
#114 = LOCAL_TIME ( 9, 27, 13.00000000000000000, #53 ) ;
#115 = APPROVAL ( #207, 'UNSPECIFIED' ) ;
#116 = DATE_AND_TIME ( #153, #172 ) ;
#117 = CARTESIAN_POINT ( 'NONE',  ( 6.349999999999999600, -6.349999999999999600, -1.500000000000000000 ) ) ;
#118 = DIRECTION ( 'NONE',  ( -0.0000000000000000000, -1.000000000000000000, -0.0000000000000000000 ) ) ;
#119 = ADVANCED_FACE ( 'NONE', ( #1 ), #217, .F. ) ;
#120 = EDGE_CURVE ( 'NONE', #16, #139, #174, .T. ) ;
#121 = VECTOR ( 'NONE', #176, 1000.000000000000000 ) ;
#122 = VERTEX_POINT ( 'NONE', #160 ) ;
#123 = CARTESIAN_POINT ( 'NONE',  ( 6.349999999999999600, -6.349999999999999600, -1.500000000000000000 ) ) ;
#124 = FACE_OUTER_BOUND ( 'NONE', #99, .T. ) ;
#125 = EDGE_CURVE ( 'NONE', #37, #139, #67, .T. ) ;
#126 =( NAMED_UNIT ( * ) PLANE_ANGLE_UNIT ( ) SI_UNIT ( $, .RADIAN. ) );
#127 = DIRECTION ( 'NONE',  ( 1.000000000000000000, 0.0000000000000000000, 0.0000000000000000000 ) ) ;
#128 = COORDINATED_UNIVERSAL_TIME_OFFSET ( 5, 0, .BEHIND. ) ;
#129 = PERSON_AND_ORGANIZATION_ROLE ( 'creator' ) ;
#130 = DATE_AND_TIME ( #193, #59 ) ;
#131 = LINE ( 'NONE', #140, #145 ) ;
#132 = AXIS2_PLACEMENT_3D ( 'NONE', #159, #224, #203 ) ;
#133 = ORIENTED_EDGE ( 'NONE', *, *, #175, .F. ) ;
#134 = CC_DESIGN_APPROVAL ( #210, ( #93 ) ) ;
#135 = VECTOR ( 'NONE', #180, 1000.000000000000000 ) ;
#136 = VECTOR ( 'NONE', #103, 1000.000000000000000 ) ;
#137 = ADVANCED_BREP_SHAPE_REPRESENTATION ( 'Web Model 46067_46069', ( #56, #55 ), #45 ) ;
#138 = DIRECTION ( 'NONE',  ( -1.000000000000000000, 0.0000000000000000000, -0.0000000000000000000 ) ) ;
#139 = VERTEX_POINT ( 'NONE', #2 ) ;
#140 = CARTESIAN_POINT ( 'NONE',  ( -6.349999999999999600, 6.349999999999999600, 1.500000000000000000 ) ) ;
#141 = CALENDAR_DATE ( 2017, 13, 7 ) ;
#142 = CARTESIAN_POINT ( 'NONE',  ( -6.349999999999999600, 6.349999999999999600, -1.500000000000000000 ) ) ;
#143 = CARTESIAN_POINT ( 'NONE',  ( -6.349999999999999600, -6.349999999999999600, 1.500000000000000000 ) ) ;
#144 = ORIENTED_EDGE ( 'NONE', *, *, #71, .F. ) ;
#145 = VECTOR ( 'NONE', #106, 1000.000000000000000 ) ;
#146 = CARTESIAN_POINT ( 'NONE',  ( 0.0000000000000000000, 0.0000000000000000000, 0.0000000000000000000 ) ) ;
#147 = EDGE_CURVE ( 'NONE', #200, #37, #33, .T. ) ;
#148 = PERSON_AND_ORGANIZATION_ROLE ( 'design_supplier' ) ;
#149 = APPROVAL_STATUS ( 'not_yet_approved' ) ;
#150 = CC_DESIGN_APPROVAL ( #115, ( #40 ) ) ;
#151 = EDGE_LOOP ( 'NONE', ( #87, #6, #58, #113 ) ) ;
#152 = PERSON_AND_ORGANIZATION ( #182, #41 ) ;
#153 = CALENDAR_DATE ( 2017, 13, 7 ) ;
#154 = DIRECTION ( 'NONE',  ( 0.0000000000000000000, -0.0000000000000000000, -1.000000000000000000 ) ) ;
#155 = CARTESIAN_POINT ( 'NONE',  ( 0.0000000000000000000, 0.0000000000000000000, -1.500000000000000000 ) ) ;
#156 = EDGE_CURVE ( 'NONE', #7, #200, #191, .T. ) ;
#157 = PLANE ( 'NONE',  #102 ) ;
#158 = CALENDAR_DATE ( 2017, 13, 7 ) ;
#159 = CARTESIAN_POINT ( 'NONE',  ( 6.349999999999999600, -6.349999999999999600, 1.500000000000000000 ) ) ;
#160 = CARTESIAN_POINT ( 'NONE',  ( -6.349999999999999600, 6.349999999999999600, -1.500000000000000000 ) ) ;
#161 = CC_DESIGN_APPROVAL ( #92, ( #218 ) ) ;
#162 = VECTOR ( 'NONE', #163, 1000.000000000000000 ) ;
#163 = DIRECTION ( 'NONE',  ( -0.0000000000000000000, -0.0000000000000000000, -1.000000000000000000 ) ) ;
#164 =( NAMED_UNIT ( * ) SI_UNIT ( $, .STERADIAN. ) SOLID_ANGLE_UNIT ( ) );
#165 = APPLICATION_PROTOCOL_DEFINITION ( 'international standard', 'config_control_design', 1994, #202 ) ;
#166 = LOCAL_TIME ( 9, 27, 13.00000000000000000, #237 ) ;
#167 = CC_DESIGN_DATE_AND_TIME_ASSIGNMENT ( #130, #44, ( #40 ) ) ;
#168 = ORIENTED_EDGE ( 'NONE', *, *, #125, .F. ) ;
#169 = CLOSED_SHELL ( 'NONE', ( #95, #48, #119, #13, #178, #61 ) ) ;
#170 = UNCERTAINTY_MEASURE_WITH_UNIT (LENGTH_MEASURE( 1.000000000000000100E-005 ), #4, 'distance_accuracy_value', 'NONE');
#171 = PERSON_AND_ORGANIZATION ( #182, #41 ) ;
#172 = LOCAL_TIME ( 9, 27, 13.00000000000000000, #128 ) ;
#173 = DATE_AND_TIME ( #158, #166 ) ;
#174 = LINE ( 'NONE', #220, #186 ) ;
#175 = EDGE_CURVE ( 'NONE', #122, #200, #91, .T. ) ;
#176 = DIRECTION ( 'NONE',  ( -1.000000000000000000, -0.0000000000000000000, -0.0000000000000000000 ) ) ;
#177 = CARTESIAN_POINT ( 'NONE',  ( -6.349999999999999600, -6.349999999999999600, 1.500000000000000000 ) ) ;
#178 = ADVANCED_FACE ( 'NONE', ( #209 ), #85, .F. ) ;
#179 = AXIS2_PLACEMENT_3D ( 'NONE', #155, #198, #138 ) ;
#180 = DIRECTION ( 'NONE',  ( -0.0000000000000000000, -1.000000000000000000, -0.0000000000000000000 ) ) ;
#181 = APPROVAL_DATE_TIME ( #116, #115 ) ;
#182 = PERSON ( 'UNSPECIFIED', 'UNSPECIFIED', 'UNSPECIFIED', ('UNSPECIFIED'), ('UNSPECIFIED'), ('UNSPECIFIED') ) ;
#183 = DESIGN_CONTEXT ( 'detailed design', #110, 'design' ) ;
#184 = CARTESIAN_POINT ( 'NONE',  ( -6.349999999999999600, 6.349999999999999600, 1.500000000000000000 ) ) ;
#185 = DIRECTION ( 'NONE',  ( -1.000000000000000000, -0.0000000000000000000, -0.0000000000000000000 ) ) ;
#186 = VECTOR ( 'NONE', #107, 1000.000000000000000 ) ;
#187 = APPROVAL_PERSON_ORGANIZATION ( #152, #210, #75 ) ;
#188 = CC_DESIGN_PERSON_AND_ORGANIZATION_ASSIGNMENT ( #90, #129, ( #218 ) ) ;
#189 = LINE ( 'NONE', #62, #206 ) ;
#190 = ORIENTED_EDGE ( 'NONE', *, *, #156, .T. ) ;
#191 = LINE ( 'NONE', #143, #162 ) ;
#192 = EDGE_LOOP ( 'NONE', ( #22, #201, #221, #24 ) ) ;
#193 = CALENDAR_DATE ( 2017, 13, 7 ) ;
#194 = CARTESIAN_POINT ( 'NONE',  ( -6.349999999999999600, -6.349999999999999600, 1.500000000000000000 ) ) ;
#195 = ORIENTED_EDGE ( 'NONE', *, *, #5, .T. ) ;
#196 = DIRECTION ( 'NONE',  ( 0.0000000000000000000, 1.000000000000000000, 0.0000000000000000000 ) ) ;
#197 = APPROVAL_DATE_TIME ( #11, #92 ) ;
#198 = DIRECTION ( 'NONE',  ( 0.0000000000000000000, 0.0000000000000000000, -1.000000000000000000 ) ) ;
#199 = CC_DESIGN_DATE_AND_TIME_ASSIGNMENT ( #233, #77, ( #93 ) ) ;
#200 = VERTEX_POINT ( 'NONE', #109 ) ;
#201 = ORIENTED_EDGE ( 'NONE', *, *, #94, .F. ) ;
#202 = APPLICATION_CONTEXT ( 'configuration controlled 3d designs of mechanical parts and assemblies' ) ;
#203 = DIRECTION ( 'NONE',  ( 0.0000000000000000000, 0.0000000000000000000, 1.000000000000000000 ) ) ;
#204 = ORIENTED_EDGE ( 'NONE', *, *, #120, .F. ) ;
#205 = DIRECTION ( 'NONE',  ( -1.000000000000000000, 0.0000000000000000000, -0.0000000000000000000 ) ) ;
#206 = VECTOR ( 'NONE', #63, 1000.000000000000000 ) ;
#207 = APPROVAL_STATUS ( 'not_yet_approved' ) ;
#208 = APPROVAL_ROLE ( '' ) ;
#209 = FACE_OUTER_BOUND ( 'NONE', #76, .T. ) ;
#210 = APPROVAL ( #88, 'UNSPECIFIED' ) ;
#211 = VECTOR ( 'NONE', #60, 1000.000000000000000 ) ;
#212 = CARTESIAN_POINT ( 'NONE',  ( -6.349999999999999600, -6.349999999999999600, 1.500000000000000000 ) ) ;
#213 = AXIS2_PLACEMENT_3D ( 'NONE', #194, #196, #98 ) ;
#214 = CARTESIAN_POINT ( 'NONE',  ( 6.349999999999999600, -6.349999999999999600, 1.500000000000000000 ) ) ;
#215 = PERSON_AND_ORGANIZATION ( #182, #41 ) ;
#216 = PLANE ( 'NONE',  #179 ) ;
#217 = PLANE ( 'NONE',  #29 ) ;
#218 = PRODUCT_DEFINITION_FORMATION_WITH_SPECIFIED_SOURCE ( 'ANY', '', #79, .NOT_KNOWN. ) ;
#219 = EDGE_LOOP ( 'NONE', ( #168, #231, #133, #144 ) ) ;
#220 = CARTESIAN_POINT ( 'NONE',  ( 6.349999999999999600, 6.349999999999999600, 1.500000000000000000 ) ) ;
#221 = ORIENTED_EDGE ( 'NONE', *, *, #15, .F. ) ;
#222 = CARTESIAN_POINT ( 'NONE',  ( 0.0000000000000000000, 0.0000000000000000000, 1.500000000000000000 ) ) ;
#223 = VECTOR ( 'NONE', #86, 1000.000000000000000 ) ;
#224 = DIRECTION ( 'NONE',  ( -1.000000000000000000, 0.0000000000000000000, 0.0000000000000000000 ) ) ;
#225 = ORIENTED_EDGE ( 'NONE', *, *, #35, .T. ) ;
#226 = SECURITY_CLASSIFICATION_LEVEL ( 'unclassified' ) ;
#227 = VECTOR ( 'NONE', #38, 1000.000000000000000 ) ;
#228 = CC_DESIGN_SECURITY_CLASSIFICATION ( #93, ( #218 ) ) ;
#229 = PRODUCT_DEFINITION_SHAPE ( 'NONE', 'NONE',  #40 ) ;
#230 = VECTOR ( 'NONE', #185, 1000.000000000000000 ) ;
#231 = ORIENTED_EDGE ( 'NONE', *, *, #147, .F. ) ;
#232 = PERSON_AND_ORGANIZATION ( #182, #41 ) ;
#233 = DATE_AND_TIME ( #64, #114 ) ;
#234 = CC_DESIGN_PERSON_AND_ORGANIZATION_ASSIGNMENT ( #74, #148, ( #218 ) ) ;
#235 = APPROVAL_PERSON_ORGANIZATION ( #171, #115, #72 ) ;
#236 = CARTESIAN_POINT ( 'NONE',  ( -6.349999999999999600, 6.349999999999999600, 1.500000000000000000 ) ) ;
#237 = COORDINATED_UNIVERSAL_TIME_OFFSET ( 5, 0, .BEHIND. ) ;
ENDSEC;
END-ISO-10303-21;
