ISO-10303-21;
HEADER;
FILE_DESCRIPTION (( 'STEP AP203' ),
    '1' );
FILE_NAME ('Web Model 19841_19892.step',
    '2022-04-06T15:20:23',
    ( 'WC' ),
    ( 'Windows Central' ),
    'SwSTEP 2.0',
    'SolidWorks 2021',
    '' );
FILE_SCHEMA (( 'CONFIG_CONTROL_DESIGN' ));
ENDSEC;

DATA;
#1 = PERSON_AND_ORGANIZATION ( #175, #107 ) ;
#2 = CYLINDRICAL_SURFACE ( 'NONE', #79, 25.00000000000000000 ) ;
#3 = CC_DESIGN_PERSON_AND_ORGANIZATION_ASSIGNMENT ( #168, #48, ( #72 ) ) ;
#4 = CC_DESIGN_APPROVAL ( #41, ( #14 ) ) ;
#5 =( NAMED_UNIT ( * ) PLANE_ANGLE_UNIT ( ) SI_UNIT ( $, .RADIAN. ) );
#6 = ORIENTED_EDGE ( 'NONE', *, *, #127, .F. ) ;
#7 = SECURITY_CLASSIFICATION ( '', '', #154 ) ;
#8 = CALENDAR_DATE ( 2022, 6, 4 ) ;
#9 = COORDINATED_UNIVERSAL_TIME_OFFSET ( 5, 0, .BEHIND. ) ;
#10 = VERTEX_POINT ( 'NONE', #152 ) ;
#11 = CALENDAR_DATE ( 2022, 6, 4 ) ;
#12 = EDGE_CURVE ( 'NONE', #10, #173, #30, .T. ) ;
#13 = APPROVAL ( #81, 'UNSPECIFIED' ) ;
#14 = PRODUCT_DEFINITION_FORMATION_WITH_SPECIFIED_SOURCE ( 'ANY', '', #72, .NOT_KNOWN. ) ;
#15 = CARTESIAN_POINT ( 'NONE',  ( 25.00000000000000000, 3.061616997868383043E-15, 3.000000000000000000 ) ) ;
#16 = AXIS2_PLACEMENT_3D ( 'NONE', #54, #163, #90 ) ;
#17 = CARTESIAN_POINT ( 'NONE',  ( -25.00000000000000000, 0.000000000000000000, 3.000000000000000000 ) ) ;
#18 = ADVANCED_FACE ( 'NONE', ( #93 ), #2, .T. ) ;
#19 = CARTESIAN_POINT ( 'NONE',  ( -25.00000000000000000, 0.000000000000000000, 3.000000000000000000 ) ) ;
#20 = APPROVAL ( #99, 'UNSPECIFIED' ) ;
#21 = VECTOR ( 'NONE', #121, 1000.000000000000000 ) ;
#22 = CYLINDRICAL_SURFACE ( 'NONE', #112, 25.00000000000000000 ) ;
#23 = PERSON_AND_ORGANIZATION_ROLE ( 'classification_officer' ) ;
#24 = DIRECTION ( 'NONE',  ( 1.000000000000000000, 0.000000000000000000, 0.000000000000000000 ) ) ;
#25 = PERSON_AND_ORGANIZATION ( #175, #107 ) ;
#26 = ORIENTED_EDGE ( 'NONE', *, *, #127, .T. ) ;
#27 = PERSON_AND_ORGANIZATION ( #175, #107 ) ;
#28 = AXIS2_PLACEMENT_3D ( 'NONE', #74, #109, #124 ) ;
#29 = LOCAL_TIME ( 11, 20, 23.00000000000000000, #9 ) ;
#30 = LINE ( 'NONE', #15, #21 ) ;
#31 = DIRECTION ( 'NONE',  ( 1.000000000000000000, 0.000000000000000000, 0.000000000000000000 ) ) ;
#32 = EDGE_CURVE ( 'NONE', #173, #156, #34, .T. ) ;
#33 = DIRECTION ( 'NONE',  ( 1.000000000000000000, 0.000000000000000000, -0.000000000000000000 ) ) ;
#34 = CIRCLE ( 'NONE', #123, 25.00000000000000000 ) ;
#35 = APPROVAL_PERSON_ORGANIZATION ( #1, #13, #120 ) ;
#36 = PERSON_AND_ORGANIZATION ( #175, #107 ) ;
#37 = ORIENTED_EDGE ( 'NONE', *, *, #32, .F. ) ;
#38 = APPROVAL_DATE_TIME ( #101, #20 ) ;
#39 = SHAPE_DEFINITION_REPRESENTATION ( #83, #71 ) ;
#40 = APPROVAL_PERSON_ORGANIZATION ( #27, #41, #52 ) ;
#41 = APPROVAL ( #78, 'UNSPECIFIED' ) ;
#42 = COORDINATED_UNIVERSAL_TIME_OFFSET ( 5, 0, .BEHIND. ) ;
#43 = LINE ( 'NONE', #17, #104 ) ;
#44 = APPLICATION_CONTEXT ( 'configuration controlled 3d designs of mechanical parts and assemblies' ) ;
#45 = ADVANCED_FACE ( 'NONE', ( #138 ), #22, .T. ) ;
#46 = CALENDAR_DATE ( 2022, 6, 4 ) ;
#47 = EDGE_LOOP ( 'NONE', ( #62, #26 ) ) ;
#48 = PERSON_AND_ORGANIZATION_ROLE ( 'design_owner' ) ;
#49 = CARTESIAN_POINT ( 'NONE',  ( 0.000000000000000000, 0.000000000000000000, 0.000000000000000000 ) ) ;
#50 = VERTEX_POINT ( 'NONE', #19 ) ;
#51 = APPROVAL_ROLE ( '' ) ;
#52 = APPROVAL_ROLE ( '' ) ;
#53 = DATE_AND_TIME ( #164, #149 ) ;
#54 = CARTESIAN_POINT ( 'NONE',  ( 0.000000000000000000, 0.000000000000000000, 3.000000000000000000 ) ) ;
#55 = DIRECTION ( 'NONE',  ( 0.000000000000000000, 0.000000000000000000, 1.000000000000000000 ) ) ;
#56 = CARTESIAN_POINT ( 'NONE',  ( 0.000000000000000000, 0.000000000000000000, 3.000000000000000000 ) ) ;
#57 = DIRECTION ( 'NONE',  ( -0.000000000000000000, -0.000000000000000000, -1.000000000000000000 ) ) ;
#58 = APPLICATION_CONTEXT ( 'configuration controlled 3d designs of mechanical parts and assemblies' ) ;
#59 = DIRECTION ( 'NONE',  ( -0.000000000000000000, -0.000000000000000000, -1.000000000000000000 ) ) ;
#60 = DIRECTION ( 'NONE',  ( -1.000000000000000000, 0.000000000000000000, 0.000000000000000000 ) ) ;
#61 = CARTESIAN_POINT ( 'NONE',  ( 0.000000000000000000, 0.000000000000000000, 0.000000000000000000 ) ) ;
#62 = ORIENTED_EDGE ( 'NONE', *, *, #80, .T. ) ;
#63 = APPROVAL_DATE_TIME ( #89, #41 ) ;
#64 = CALENDAR_DATE ( 2022, 6, 4 ) ;
#65 = MANIFOLD_SOLID_BREP ( 'Boss-Extrude1', #118 ) ;
#66 = CC_DESIGN_DATE_AND_TIME_ASSIGNMENT ( #114, #155, ( #7 ) ) ;
#67 =( LENGTH_UNIT ( ) NAMED_UNIT ( * ) SI_UNIT ( .MILLI., .METRE. ) );
#68 = DATE_TIME_ROLE ( 'creation_date' ) ;
#69 = AXIS2_PLACEMENT_3D ( 'NONE', #134, #55, #105 ) ;
#70 = APPROVAL_DATE_TIME ( #53, #13 ) ;
#71 = ADVANCED_BREP_SHAPE_REPRESENTATION ( 'Web Model 19841_19892', ( #65, #157 ), #108 ) ;
#72 = PRODUCT ( 'Web Model 19841_19892', 'Web Model 19841_19892', '', ( #158 ) ) ;
#73 = DIRECTION ( 'NONE',  ( -1.000000000000000000, 0.000000000000000000, 0.000000000000000000 ) ) ;
#74 = CARTESIAN_POINT ( 'NONE',  ( 0.000000000000000000, 0.000000000000000000, 3.000000000000000000 ) ) ;
#75 = COORDINATED_UNIVERSAL_TIME_OFFSET ( 5, 0, .BEHIND. ) ;
#76 = CARTESIAN_POINT ( 'NONE',  ( 25.00000000000000000, 3.061616997868383043E-15, 0.000000000000000000 ) ) ;
#77 = EDGE_LOOP ( 'NONE', ( #95, #37 ) ) ;
#78 = APPROVAL_STATUS ( 'not_yet_approved' ) ;
#79 = AXIS2_PLACEMENT_3D ( 'NONE', #82, #59, #60 ) ;
#80 = EDGE_CURVE ( 'NONE', #50, #10, #143, .T. ) ;
#81 = APPROVAL_STATUS ( 'not_yet_approved' ) ;
#82 = CARTESIAN_POINT ( 'NONE',  ( 0.000000000000000000, 0.000000000000000000, 3.000000000000000000 ) ) ;
#83 = PRODUCT_DEFINITION_SHAPE ( 'NONE', 'NONE',  #113 ) ;
#84 = PERSON_AND_ORGANIZATION ( #175, #107 ) ;
#85 = CC_DESIGN_PERSON_AND_ORGANIZATION_ASSIGNMENT ( #84, #23, ( #7 ) ) ;
#86 = CARTESIAN_POINT ( 'NONE',  ( -25.00000000000000000, 0.000000000000000000, 0.000000000000000000 ) ) ;
#87 = ORIENTED_EDGE ( 'NONE', *, *, #12, .F. ) ;
#88 = ORIENTED_EDGE ( 'NONE', *, *, #102, .F. ) ;
#89 = DATE_AND_TIME ( #46, #91 ) ;
#90 = DIRECTION ( 'NONE',  ( 1.000000000000000000, 0.000000000000000000, 0.000000000000000000 ) ) ;
#91 = LOCAL_TIME ( 11, 20, 23.00000000000000000, #161 ) ;
#92 = CC_DESIGN_DATE_AND_TIME_ASSIGNMENT ( #160, #68, ( #113 ) ) ;
#93 = FACE_OUTER_BOUND ( 'NONE', #131, .T. ) ;
#94 = PERSON_AND_ORGANIZATION_ROLE ( 'design_supplier' ) ;
#95 = ORIENTED_EDGE ( 'NONE', *, *, #141, .F. ) ;
#96 = ADVANCED_FACE ( 'NONE', ( #111 ), #125, .T. ) ;
#97 = PERSON_AND_ORGANIZATION ( #175, #107 ) ;
#98 = ORIENTED_EDGE ( 'NONE', *, *, #80, .F. ) ;
#99 = APPROVAL_STATUS ( 'not_yet_approved' ) ;
#100 = CC_DESIGN_APPROVAL ( #13, ( #7 ) ) ;
#101 = DATE_AND_TIME ( #64, #29 ) ;
#102 = EDGE_CURVE ( 'NONE', #50, #156, #43, .T. ) ;
#103 = PLANE ( 'NONE',  #166 ) ;
#104 = VECTOR ( 'NONE', #122, 1000.000000000000000 ) ;
#105 = DIRECTION ( 'NONE',  ( 1.000000000000000000, 0.000000000000000000, 0.000000000000000000 ) ) ;
#106 = DIRECTION ( 'NONE',  ( 0.000000000000000000, 0.000000000000000000, 1.000000000000000000 ) ) ;
#107 = ORGANIZATION ( 'UNSPECIFIED', 'UNSPECIFIED', '' ) ;
#108 =( GEOMETRIC_REPRESENTATION_CONTEXT ( 3 ) GLOBAL_UNCERTAINTY_ASSIGNED_CONTEXT ( ( #128 ) ) GLOBAL_UNIT_ASSIGNED_CONTEXT ( ( #67, #5, #126 ) ) REPRESENTATION_CONTEXT ( 'NONE', 'WORKASPACE' ) );
#109 = DIRECTION ( 'NONE',  ( 0.000000000000000000, 0.000000000000000000, 1.000000000000000000 ) ) ;
#110 = LOCAL_TIME ( 11, 20, 23.00000000000000000, #75 ) ;
#111 = FACE_OUTER_BOUND ( 'NONE', #47, .T. ) ;
#112 = AXIS2_PLACEMENT_3D ( 'NONE', #56, #57, #73 ) ;
#113 = PRODUCT_DEFINITION ( 'UNKNOWN', '', #14, #169 ) ;
#114 = DATE_AND_TIME ( #8, #110 ) ;
#115 = DIRECTION ( 'NONE',  ( 0.000000000000000000, 0.000000000000000000, 1.000000000000000000 ) ) ;
#116 = ORIENTED_EDGE ( 'NONE', *, *, #32, .T. ) ;
#117 = CIRCLE ( 'NONE', #16, 25.00000000000000000 ) ;
#118 = CLOSED_SHELL ( 'NONE', ( #18, #45, #96, #162 ) ) ;
#119 = APPROVAL_PERSON_ORGANIZATION ( #36, #20, #51 ) ;
#120 = APPROVAL_ROLE ( '' ) ;
#121 = DIRECTION ( 'NONE',  ( -0.000000000000000000, -0.000000000000000000, -1.000000000000000000 ) ) ;
#122 = DIRECTION ( 'NONE',  ( -0.000000000000000000, -0.000000000000000000, -1.000000000000000000 ) ) ;
#123 = AXIS2_PLACEMENT_3D ( 'NONE', #129, #140, #31 ) ;
#124 = DIRECTION ( 'NONE',  ( 1.000000000000000000, 0.000000000000000000, 0.000000000000000000 ) ) ;
#125 = PLANE ( 'NONE',  #139 ) ;
#126 =( NAMED_UNIT ( * ) SI_UNIT ( $, .STERADIAN. ) SOLID_ANGLE_UNIT ( ) );
#127 = EDGE_CURVE ( 'NONE', #10, #50, #117, .T. ) ;
#128 = UNCERTAINTY_MEASURE_WITH_UNIT (LENGTH_MEASURE( 1.000000000000000082E-05 ), #67, 'distance_accuracy_value', 'NONE');
#129 = CARTESIAN_POINT ( 'NONE',  ( 0.000000000000000000, 0.000000000000000000, 0.000000000000000000 ) ) ;
#130 = PERSON_AND_ORGANIZATION ( #175, #107 ) ;
#131 = EDGE_LOOP ( 'NONE', ( #6, #147, #116, #88 ) ) ;
#132 = FACE_OUTER_BOUND ( 'NONE', #77, .T. ) ;
#133 = COORDINATED_UNIVERSAL_TIME_OFFSET ( 5, 0, .BEHIND. ) ;
#134 = CARTESIAN_POINT ( 'NONE',  ( 0.000000000000000000, 0.000000000000000000, 0.000000000000000000 ) ) ;
#135 = CC_DESIGN_SECURITY_CLASSIFICATION ( #7, ( #14 ) ) ;
#136 = CIRCLE ( 'NONE', #69, 25.00000000000000000 ) ;
#137 = CC_DESIGN_PERSON_AND_ORGANIZATION_ASSIGNMENT ( #97, #148, ( #14 ) ) ;
#138 = FACE_OUTER_BOUND ( 'NONE', #159, .T. ) ;
#139 = AXIS2_PLACEMENT_3D ( 'NONE', #153, #106, #150 ) ;
#140 = DIRECTION ( 'NONE',  ( 0.000000000000000000, 0.000000000000000000, 1.000000000000000000 ) ) ;
#141 = EDGE_CURVE ( 'NONE', #156, #173, #136, .T. ) ;
#142 = DIRECTION ( 'NONE',  ( 0.000000000000000000, 0.000000000000000000, 1.000000000000000000 ) ) ;
#143 = CIRCLE ( 'NONE', #28, 25.00000000000000000 ) ;
#144 = CC_DESIGN_APPROVAL ( #20, ( #113 ) ) ;
#145 = APPLICATION_PROTOCOL_DEFINITION ( 'international standard', 'config_control_design', 1994, #44 ) ;
#146 = PERSON_AND_ORGANIZATION_ROLE ( 'creator' ) ;
#147 = ORIENTED_EDGE ( 'NONE', *, *, #12, .T. ) ;
#148 = PERSON_AND_ORGANIZATION_ROLE ( 'creator' ) ;
#149 = LOCAL_TIME ( 11, 20, 23.00000000000000000, #42 ) ;
#150 = DIRECTION ( 'NONE',  ( 1.000000000000000000, 0.000000000000000000, -0.000000000000000000 ) ) ;
#151 = CC_DESIGN_PERSON_AND_ORGANIZATION_ASSIGNMENT ( #130, #94, ( #14 ) ) ;
#152 = CARTESIAN_POINT ( 'NONE',  ( 25.00000000000000000, 3.061616997868383043E-15, 3.000000000000000000 ) ) ;
#153 = CARTESIAN_POINT ( 'NONE',  ( 0.000000000000000000, 0.000000000000000000, 3.000000000000000000 ) ) ;
#154 = SECURITY_CLASSIFICATION_LEVEL ( 'unclassified' ) ;
#155 = DATE_TIME_ROLE ( 'classification_date' ) ;
#156 = VERTEX_POINT ( 'NONE', #86 ) ;
#157 = AXIS2_PLACEMENT_3D ( 'NONE', #61, #115, #24 ) ;
#158 = MECHANICAL_CONTEXT ( 'NONE', #44, 'mechanical' ) ;
#159 = EDGE_LOOP ( 'NONE', ( #87, #98, #172, #170 ) ) ;
#160 = DATE_AND_TIME ( #11, #167 ) ;
#161 = COORDINATED_UNIVERSAL_TIME_OFFSET ( 5, 0, .BEHIND. ) ;
#162 = ADVANCED_FACE ( 'NONE', ( #132 ), #103, .F. ) ;
#163 = DIRECTION ( 'NONE',  ( 0.000000000000000000, 0.000000000000000000, 1.000000000000000000 ) ) ;
#164 = CALENDAR_DATE ( 2022, 6, 4 ) ;
#165 = CC_DESIGN_PERSON_AND_ORGANIZATION_ASSIGNMENT ( #25, #146, ( #113 ) ) ;
#166 = AXIS2_PLACEMENT_3D ( 'NONE', #49, #142, #33 ) ;
#167 = LOCAL_TIME ( 11, 20, 23.00000000000000000, #133 ) ;
#168 = PERSON_AND_ORGANIZATION ( #175, #107 ) ;
#169 = DESIGN_CONTEXT ( 'detailed design', #58, 'design' ) ;
#170 = ORIENTED_EDGE ( 'NONE', *, *, #141, .T. ) ;
#171 = PRODUCT_RELATED_PRODUCT_CATEGORY ( 'detail', '', ( #72 ) ) ;
#172 = ORIENTED_EDGE ( 'NONE', *, *, #102, .T. ) ;
#173 = VERTEX_POINT ( 'NONE', #76 ) ;
#174 = APPLICATION_PROTOCOL_DEFINITION ( 'international standard', 'config_control_design', 1994, #58 ) ;
#175 = PERSON ( 'UNSPECIFIED', 'UNSPECIFIED', 'UNSPECIFIED', ('UNSPECIFIED'), ('UNSPECIFIED'), ('UNSPECIFIED') ) ;
ENDSEC;
END-ISO-10303-21;
