ISO-10303-21;
HEADER;
FILE_DESCRIPTION (( 'STEP AP203' ),
    '1' );
FILE_NAME ('Web Model 68521_17195.step',
    '2021-04-14T19:16:01',
    ( '' ),
    ( '' ),
    'SwSTEP 2.0',
    'SolidWorks 2018',
    '' );
FILE_SCHEMA (( 'CONFIG_CONTROL_DESIGN' ));
ENDSEC;

DATA;
#1 = CC_DESIGN_APPROVAL ( #37, ( #20 ) ) ;
#2 = APPLICATION_PROTOCOL_DEFINITION ( 'international standard', 'config_control_design', 1994, #81 ) ;
#3 = CARTESIAN_POINT ( 'NONE',  ( 0.000000000000000000, 1.500000000000000000, 0.000000000000000000 ) ) ;
#4 = DATE_AND_TIME ( #141, #21 ) ;
#5 = LOCAL_TIME ( 15, 16, 1.000000000000000000, #34 ) ;
#6 = VERTEX_POINT ( 'NONE', #25 ) ;
#7 = PERSON_AND_ORGANIZATION_ROLE ( 'classification_officer' ) ;
#8 = CALENDAR_DATE ( 2021, 14, 4 ) ;
#9 = CARTESIAN_POINT ( 'NONE',  ( 0.000000000000000000, 1.500000000000000000, 0.000000000000000000 ) ) ;
#10 = CC_DESIGN_PERSON_AND_ORGANIZATION_ASSIGNMENT ( #134, #171, ( #44 ) ) ;
#11 = PERSON_AND_ORGANIZATION_ROLE ( 'creator' ) ;
#12 = DIRECTION ( 'NONE',  ( -0.000000000000000000, -1.000000000000000000, -0.000000000000000000 ) ) ;
#13 = DIRECTION ( 'NONE',  ( 0.000000000000000000, -0.000000000000000000, 1.000000000000000000 ) ) ;
#14 = PLANE ( 'NONE',  #35 ) ;
#15 = DIRECTION ( 'NONE',  ( 0.000000000000000000, 1.000000000000000000, 0.000000000000000000 ) ) ;
#16 = CIRCLE ( 'NONE', #46, 5.000000000000000888 ) ;
#17 = CALENDAR_DATE ( 2021, 14, 4 ) ;
#18 = CIRCLE ( 'NONE', #93, 5.000000000000000888 ) ;
#19 = AXIS2_PLACEMENT_3D ( 'NONE', #26, #142, #130 ) ;
#20 = SECURITY_CLASSIFICATION ( '', '', #64 ) ;
#21 = LOCAL_TIME ( 15, 16, 1.000000000000000000, #173 ) ;
#22 = DESIGN_CONTEXT ( 'detailed design', #95, 'design' ) ;
#23 = CARTESIAN_POINT ( 'NONE',  ( 6.123233995736767268E-16, 1.500000000000000000, 5.000000000000000888 ) ) ;
#24 = DATE_AND_TIME ( #17, #54 ) ;
#25 = CARTESIAN_POINT ( 'NONE',  ( 0.000000000000000000, 1.500000000000000000, -5.000000000000000888 ) ) ;
#26 = CARTESIAN_POINT ( 'NONE',  ( 0.000000000000000000, 0.000000000000000000, 0.000000000000000000 ) ) ;
#27 = PLANE ( 'NONE',  #147 ) ;
#28 = CC_DESIGN_DATE_AND_TIME_ASSIGNMENT ( #4, #145, ( #135 ) ) ;
#29 = DIRECTION ( 'NONE',  ( 1.000000000000000000, 0.000000000000000000, 0.000000000000000000 ) ) ;
#30 = PERSON_AND_ORGANIZATION_ROLE ( 'design_owner' ) ;
#31 = APPROVAL_PERSON_ORGANIZATION ( #125, #170, #43 ) ;
#32 = VERTEX_POINT ( 'NONE', #23 ) ;
#33 = CC_DESIGN_PERSON_AND_ORGANIZATION_ASSIGNMENT ( #45, #148, ( #135 ) ) ;
#34 = COORDINATED_UNIVERSAL_TIME_OFFSET ( 5, 0, .BEHIND. ) ;
#35 = AXIS2_PLACEMENT_3D ( 'NONE', #133, #15, #13 ) ;
#36 = ORIENTED_EDGE ( 'NONE', *, *, #49, .F. ) ;
#37 = APPROVAL ( #40, 'UNSPECIFIED' ) ;
#38 = EDGE_CURVE ( 'NONE', #73, #157, #55, .T. ) ;
#39 = APPROVAL_DATE_TIME ( #92, #37 ) ;
#40 = APPROVAL_STATUS ( 'not_yet_approved' ) ;
#41 = APPROVAL_STATUS ( 'not_yet_approved' ) ;
#42 = DIRECTION ( 'NONE',  ( 0.000000000000000000, 1.000000000000000000, 0.000000000000000000 ) ) ;
#43 = APPROVAL_ROLE ( '' ) ;
#44 = PRODUCT_DEFINITION_FORMATION_WITH_SPECIFIED_SOURCE ( 'ANY', '', #121, .NOT_KNOWN. ) ;
#45 = PERSON_AND_ORGANIZATION ( #164, #111 ) ;
#46 = AXIS2_PLACEMENT_3D ( 'NONE', #158, #76, #172 ) ;
#47 = ORIENTED_EDGE ( 'NONE', *, *, #105, .F. ) ;
#48 = ORIENTED_EDGE ( 'NONE', *, *, #137, .F. ) ;
#49 = EDGE_CURVE ( 'NONE', #157, #73, #18, .T. ) ;
#50 = APPROVAL_PERSON_ORGANIZATION ( #99, #37, #75 ) ;
#51 = CARTESIAN_POINT ( 'NONE',  ( 0.000000000000000000, 0.000000000000000000, 0.000000000000000000 ) ) ;
#52 = DIRECTION ( 'NONE',  ( -0.000000000000000000, -1.000000000000000000, -0.000000000000000000 ) ) ;
#53 = CARTESIAN_POINT ( 'NONE',  ( 0.000000000000000000, 1.500000000000000000, 0.000000000000000000 ) ) ;
#54 = LOCAL_TIME ( 15, 16, 1.000000000000000000, #136 ) ;
#55 = CIRCLE ( 'NONE', #19, 5.000000000000000888 ) ;
#56 = CARTESIAN_POINT ( 'NONE',  ( 6.123233995736767268E-16, 0.000000000000000000, 5.000000000000000888 ) ) ;
#57 = SHAPE_DEFINITION_REPRESENTATION ( #119, #109 ) ;
#58 = CC_DESIGN_SECURITY_CLASSIFICATION ( #20, ( #44 ) ) ;
#59 = EDGE_CURVE ( 'NONE', #6, #73, #62, .T. ) ;
#60 = CALENDAR_DATE ( 2021, 14, 4 ) ;
#61 = CC_DESIGN_APPROVAL ( #80, ( #44 ) ) ;
#62 = LINE ( 'NONE', #91, #118 ) ;
#63 =( GEOMETRIC_REPRESENTATION_CONTEXT ( 3 ) GLOBAL_UNCERTAINTY_ASSIGNED_CONTEXT ( ( #122 ) ) GLOBAL_UNIT_ASSIGNED_CONTEXT ( ( #108, #161, #146 ) ) REPRESENTATION_CONTEXT ( 'NONE', 'WORKASPACE' ) );
#64 = SECURITY_CLASSIFICATION_LEVEL ( 'unclassified' ) ;
#65 = ADVANCED_FACE ( 'NONE', ( #66 ), #27, .T. ) ;
#66 = FACE_OUTER_BOUND ( 'NONE', #90, .T. ) ;
#67 = DIRECTION ( 'NONE',  ( 0.000000000000000000, 1.000000000000000000, 0.000000000000000000 ) ) ;
#68 = CALENDAR_DATE ( 2021, 14, 4 ) ;
#69 = APPROVAL_STATUS ( 'not_yet_approved' ) ;
#70 = DIRECTION ( 'NONE',  ( 0.000000000000000000, 0.000000000000000000, 1.000000000000000000 ) ) ;
#71 = APPROVAL_PERSON_ORGANIZATION ( #103, #80, #102 ) ;
#72 = CC_DESIGN_APPROVAL ( #170, ( #135 ) ) ;
#73 = VERTEX_POINT ( 'NONE', #78 ) ;
#74 = APPROVAL_DATE_TIME ( #150, #170 ) ;
#75 = APPROVAL_ROLE ( '' ) ;
#76 = DIRECTION ( 'NONE',  ( 0.000000000000000000, 1.000000000000000000, 0.000000000000000000 ) ) ;
#77 = PERSON_AND_ORGANIZATION ( #164, #111 ) ;
#78 = CARTESIAN_POINT ( 'NONE',  ( 0.000000000000000000, 0.000000000000000000, -5.000000000000000888 ) ) ;
#79 = DIRECTION ( 'NONE',  ( 0.000000000000000000, 0.000000000000000000, 1.000000000000000000 ) ) ;
#80 = APPROVAL ( #69, 'UNSPECIFIED' ) ;
#81 = APPLICATION_CONTEXT ( 'configuration controlled 3d designs of mechanical parts and assemblies' ) ;
#82 = LINE ( 'NONE', #131, #143 ) ;
#83 = DIRECTION ( 'NONE',  ( 0.000000000000000000, 0.000000000000000000, -1.000000000000000000 ) ) ;
#84 = CC_DESIGN_PERSON_AND_ORGANIZATION_ASSIGNMENT ( #167, #7, ( #20 ) ) ;
#85 = ORIENTED_EDGE ( 'NONE', *, *, #137, .T. ) ;
#86 = EDGE_CURVE ( 'NONE', #6, #32, #16, .T. ) ;
#87 = DATE_AND_TIME ( #8, #5 ) ;
#88 = ORIENTED_EDGE ( 'NONE', *, *, #49, .T. ) ;
#89 = DIRECTION ( 'NONE',  ( 0.000000000000000000, 0.000000000000000000, -1.000000000000000000 ) ) ;
#90 = EDGE_LOOP ( 'NONE', ( #128, #85 ) ) ;
#91 = CARTESIAN_POINT ( 'NONE',  ( 0.000000000000000000, 1.500000000000000000, -5.000000000000000888 ) ) ;
#92 = DATE_AND_TIME ( #68, #100 ) ;
#93 = AXIS2_PLACEMENT_3D ( 'NONE', #51, #67, #129 ) ;
#94 = LOCAL_TIME ( 15, 16, 1.000000000000000000, #155 ) ;
#95 = APPLICATION_CONTEXT ( 'configuration controlled 3d designs of mechanical parts and assemblies' ) ;
#96 = ORIENTED_EDGE ( 'NONE', *, *, #59, .F. ) ;
#97 = APPROVAL_DATE_TIME ( #87, #80 ) ;
#98 = EDGE_LOOP ( 'NONE', ( #47, #156, #144, #140 ) ) ;
#99 = PERSON_AND_ORGANIZATION ( #164, #111 ) ;
#100 = LOCAL_TIME ( 15, 16, 1.000000000000000000, #149 ) ;
#101 = AXIS2_PLACEMENT_3D ( 'NONE', #53, #42, #70 ) ;
#102 = APPROVAL_ROLE ( '' ) ;
#103 = PERSON_AND_ORGANIZATION ( #164, #111 ) ;
#104 = ADVANCED_FACE ( 'NONE', ( #162 ), #165, .T. ) ;
#105 = EDGE_CURVE ( 'NONE', #32, #157, #82, .T. ) ;
#106 = DIRECTION ( 'NONE',  ( 0.000000000000000000, 1.000000000000000000, 0.000000000000000000 ) ) ;
#107 = CARTESIAN_POINT ( 'NONE',  ( 0.000000000000000000, 1.500000000000000000, 0.000000000000000000 ) ) ;
#108 =( LENGTH_UNIT ( ) NAMED_UNIT ( * ) SI_UNIT ( .MILLI., .METRE. ) );
#109 = ADVANCED_BREP_SHAPE_REPRESENTATION ( 'Web Model 68521_17195', ( #166, #124 ), #63 ) ;
#110 = FACE_OUTER_BOUND ( 'NONE', #152, .T. ) ;
#111 = ORGANIZATION ( 'UNSPECIFIED', 'UNSPECIFIED', '' ) ;
#112 = EDGE_LOOP ( 'NONE', ( #116, #36 ) ) ;
#113 = FACE_OUTER_BOUND ( 'NONE', #112, .T. ) ;
#114 = DIRECTION ( 'NONE',  ( 0.000000000000000000, -0.000000000000000000, 1.000000000000000000 ) ) ;
#115 = ORIENTED_EDGE ( 'NONE', *, *, #105, .T. ) ;
#116 = ORIENTED_EDGE ( 'NONE', *, *, #38, .F. ) ;
#117 = CARTESIAN_POINT ( 'NONE',  ( 0.000000000000000000, 0.000000000000000000, 0.000000000000000000 ) ) ;
#118 = VECTOR ( 'NONE', #12, 1000.000000000000000 ) ;
#119 = PRODUCT_DEFINITION_SHAPE ( 'NONE', 'NONE',  #135 ) ;
#120 = APPLICATION_PROTOCOL_DEFINITION ( 'international standard', 'config_control_design', 1994, #95 ) ;
#121 = PRODUCT ( 'Web Model 68521_17195', 'Web Model 68521_17195', '', ( #163 ) ) ;
#122 = UNCERTAINTY_MEASURE_WITH_UNIT (LENGTH_MEASURE( 1.000000000000000082E-05 ), #108, 'distance_accuracy_value', 'NONE');
#123 = CYLINDRICAL_SURFACE ( 'NONE', #153, 5.000000000000000888 ) ;
#124 = AXIS2_PLACEMENT_3D ( 'NONE', #117, #79, #29 ) ;
#125 = PERSON_AND_ORGANIZATION ( #164, #111 ) ;
#126 = ADVANCED_FACE ( 'NONE', ( #110 ), #123, .T. ) ;
#127 = PERSON_AND_ORGANIZATION ( #164, #111 ) ;
#128 = ORIENTED_EDGE ( 'NONE', *, *, #86, .T. ) ;
#129 = DIRECTION ( 'NONE',  ( 0.000000000000000000, 0.000000000000000000, 1.000000000000000000 ) ) ;
#130 = DIRECTION ( 'NONE',  ( 0.000000000000000000, 0.000000000000000000, 1.000000000000000000 ) ) ;
#131 = CARTESIAN_POINT ( 'NONE',  ( 6.123233995736767268E-16, 1.500000000000000000, 5.000000000000000888 ) ) ;
#132 = CLOSED_SHELL ( 'NONE', ( #126, #104, #65, #169 ) ) ;
#133 = CARTESIAN_POINT ( 'NONE',  ( 0.000000000000000000, 0.000000000000000000, 0.000000000000000000 ) ) ;
#134 = PERSON_AND_ORGANIZATION ( #164, #111 ) ;
#135 = PRODUCT_DEFINITION ( 'UNKNOWN', '', #44, #22 ) ;
#136 = COORDINATED_UNIVERSAL_TIME_OFFSET ( 5, 0, .BEHIND. ) ;
#137 = EDGE_CURVE ( 'NONE', #32, #6, #138, .T. ) ;
#138 = CIRCLE ( 'NONE', #101, 5.000000000000000888 ) ;
#139 = PRODUCT_RELATED_PRODUCT_CATEGORY ( 'detail', '', ( #121 ) ) ;
#140 = ORIENTED_EDGE ( 'NONE', *, *, #38, .T. ) ;
#141 = CALENDAR_DATE ( 2021, 14, 4 ) ;
#142 = DIRECTION ( 'NONE',  ( 0.000000000000000000, 1.000000000000000000, 0.000000000000000000 ) ) ;
#143 = VECTOR ( 'NONE', #52, 1000.000000000000000 ) ;
#144 = ORIENTED_EDGE ( 'NONE', *, *, #59, .T. ) ;
#145 = DATE_TIME_ROLE ( 'creation_date' ) ;
#146 =( NAMED_UNIT ( * ) SI_UNIT ( $, .STERADIAN. ) SOLID_ANGLE_UNIT ( ) );
#147 = AXIS2_PLACEMENT_3D ( 'NONE', #9, #106, #114 ) ;
#148 = PERSON_AND_ORGANIZATION_ROLE ( 'creator' ) ;
#149 = COORDINATED_UNIVERSAL_TIME_OFFSET ( 5, 0, .BEHIND. ) ;
#150 = DATE_AND_TIME ( #60, #94 ) ;
#151 = CC_DESIGN_PERSON_AND_ORGANIZATION_ASSIGNMENT ( #77, #30, ( #121 ) ) ;
#152 = EDGE_LOOP ( 'NONE', ( #48, #115, #88, #96 ) ) ;
#153 = AXIS2_PLACEMENT_3D ( 'NONE', #3, #175, #83 ) ;
#154 = CC_DESIGN_DATE_AND_TIME_ASSIGNMENT ( #24, #174, ( #20 ) ) ;
#155 = COORDINATED_UNIVERSAL_TIME_OFFSET ( 5, 0, .BEHIND. ) ;
#156 = ORIENTED_EDGE ( 'NONE', *, *, #86, .F. ) ;
#157 = VERTEX_POINT ( 'NONE', #56 ) ;
#158 = CARTESIAN_POINT ( 'NONE',  ( 0.000000000000000000, 1.500000000000000000, 0.000000000000000000 ) ) ;
#159 = CC_DESIGN_PERSON_AND_ORGANIZATION_ASSIGNMENT ( #127, #11, ( #44 ) ) ;
#160 = DIRECTION ( 'NONE',  ( -0.000000000000000000, -1.000000000000000000, -0.000000000000000000 ) ) ;
#161 =( NAMED_UNIT ( * ) PLANE_ANGLE_UNIT ( ) SI_UNIT ( $, .RADIAN. ) );
#162 = FACE_OUTER_BOUND ( 'NONE', #98, .T. ) ;
#163 = MECHANICAL_CONTEXT ( 'NONE', #81, 'mechanical' ) ;
#164 = PERSON ( 'UNSPECIFIED', 'UNSPECIFIED', 'UNSPECIFIED', ('UNSPECIFIED'), ('UNSPECIFIED'), ('UNSPECIFIED') ) ;
#165 = CYLINDRICAL_SURFACE ( 'NONE', #168, 5.000000000000000888 ) ;
#166 = MANIFOLD_SOLID_BREP ( 'Extrude1', #132 ) ;
#167 = PERSON_AND_ORGANIZATION ( #164, #111 ) ;
#168 = AXIS2_PLACEMENT_3D ( 'NONE', #107, #160, #89 ) ;
#169 = ADVANCED_FACE ( 'NONE', ( #113 ), #14, .F. ) ;
#170 = APPROVAL ( #41, 'UNSPECIFIED' ) ;
#171 = PERSON_AND_ORGANIZATION_ROLE ( 'design_supplier' ) ;
#172 = DIRECTION ( 'NONE',  ( 0.000000000000000000, 0.000000000000000000, 1.000000000000000000 ) ) ;
#173 = COORDINATED_UNIVERSAL_TIME_OFFSET ( 5, 0, .BEHIND. ) ;
#174 = DATE_TIME_ROLE ( 'classification_date' ) ;
#175 = DIRECTION ( 'NONE',  ( -0.000000000000000000, -1.000000000000000000, -0.000000000000000000 ) ) ;
ENDSEC;
END-ISO-10303-21;
