ISO-10303-21;
HEADER;
FILE_DESCRIPTION (( 'STEP AP203' ),
    '1' );
FILE_NAME ('Web Model 84492.STEP',
    '2017-02-01T15:51:36',
    ( '' ),
    ( '' ),
    'SwSTEP 2.0',
    'SolidWorks 2016',
    '' );
FILE_SCHEMA (( 'CONFIG_CONTROL_DESIGN' ));
ENDSEC;

DATA;
#1 = LINE ( 'NONE', #31, #176 ) ;
#2 = VECTOR ( 'NONE', #93, 1000.000000000000000 ) ;
#3 = ORIENTED_EDGE ( 'NONE', *, *, #218, .T. ) ;
#4 = ADVANCED_FACE ( 'NONE', ( #81 ), #7, .F. ) ;
#5 = ORIENTED_EDGE ( 'NONE', *, *, #190, .F. ) ;
#6 = DIRECTION ( 'NONE',  ( -0.0000000000000000000, -0.0000000000000000000, -1.000000000000000000 ) ) ;
#7 = PLANE ( 'NONE',  #195 ) ;
#8 = CC_DESIGN_PERSON_AND_ORGANIZATION_ASSIGNMENT ( #34, #148, ( #94 ) ) ;
#9 = COORDINATED_UNIVERSAL_TIME_OFFSET ( 5, 0, .BEHIND. ) ;
#10 = CARTESIAN_POINT ( 'NONE',  ( -25.00000000000000400, 25.00000000000000000, 4.000000000000000000 ) ) ;
#11 = PERSON_AND_ORGANIZATION ( #234, #216 ) ;
#12 = DIRECTION ( 'NONE',  ( 1.000000000000000000, 6.938893903907228400E-017, -0.0000000000000000000 ) ) ;
#13 = MECHANICAL_CONTEXT ( 'NONE', #45, 'mechanical' ) ;
#14 = CARTESIAN_POINT ( 'NONE',  ( -25.00000000000000000, -25.00000000000000000, 4.000000000000000000 ) ) ;
#15 = DIRECTION ( 'NONE',  ( -2.081668171172168500E-016, 1.000000000000000000, -0.0000000000000000000 ) ) ;
#16 = EDGE_LOOP ( 'NONE', ( #57, #92, #104, #25 ) ) ;
#17 = VERTEX_POINT ( 'NONE', #79 ) ;
#18 = APPROVAL_DATE_TIME ( #175, #226 ) ;
#19 = CC_DESIGN_DATE_AND_TIME_ASSIGNMENT ( #182, #61, ( #107 ) ) ;
#20 = ORIENTED_EDGE ( 'NONE', *, *, #70, .T. ) ;
#21 = ADVANCED_FACE ( 'NONE', ( #87 ), #186, .F. ) ;
#22 = VECTOR ( 'NONE', #66, 1000.000000000000000 ) ;
#23 = AXIS2_PLACEMENT_3D ( 'NONE', #149, #111, #220 ) ;
#24 = PLANE ( 'NONE',  #166 ) ;
#25 = ORIENTED_EDGE ( 'NONE', *, *, #137, .T. ) ;
#26 = FACE_OUTER_BOUND ( 'NONE', #157, .T. ) ;
#27 = CARTESIAN_POINT ( 'NONE',  ( -25.00000000000000400, 25.00000000000000000, 4.000000000000000000 ) ) ;
#28 = DATE_TIME_ROLE ( 'classification_date' ) ;
#29 = DIRECTION ( 'NONE',  ( -1.000000000000000000, 6.938893903907228400E-017, -0.0000000000000000000 ) ) ;
#30 = DIRECTION ( 'NONE',  ( 1.000000000000000000, 0.0000000000000000000, 0.0000000000000000000 ) ) ;
#31 = CARTESIAN_POINT ( 'NONE',  ( 24.99999999999999600, 24.99999999999999600, 4.000000000000000000 ) ) ;
#32 = LOCAL_TIME ( 10, 51, 36.00000000000000000, #179 ) ;
#33 = ORIENTED_EDGE ( 'NONE', *, *, #137, .F. ) ;
#34 = PERSON_AND_ORGANIZATION ( #234, #216 ) ;
#35 = EDGE_CURVE ( 'NONE', #177, #194, #46, .T. ) ;
#36 = LOCAL_TIME ( 10, 51, 36.00000000000000000, #9 ) ;
#37 = VECTOR ( 'NONE', #124, 1000.000000000000000 ) ;
#38 = CLOSED_SHELL ( 'NONE', ( #4, #108, #143, #21, #141, #201 ) ) ;
#39 = ORIENTED_EDGE ( 'NONE', *, *, #35, .F. ) ;
#40 = APPROVAL_DATE_TIME ( #126, #116 ) ;
#41 = DIRECTION ( 'NONE',  ( -1.000000000000000000, 6.938893903907228400E-017, -0.0000000000000000000 ) ) ;
#42 = PLANE ( 'NONE',  #23 ) ;
#43 = AXIS2_PLACEMENT_3D ( 'NONE', #77, #146, #30 ) ;
#44 = PERSON_AND_ORGANIZATION_ROLE ( 'creator' ) ;
#45 = APPLICATION_CONTEXT ( 'configuration controlled 3d designs of mechanical parts and assemblies' ) ;
#46 = LINE ( 'NONE', #51, #188 ) ;
#47 = LINE ( 'NONE', #123, #37 ) ;
#48 = VECTOR ( 'NONE', #29, 1000.000000000000000 ) ;
#49 = DIRECTION ( 'NONE',  ( 2.081668171172168500E-016, -1.000000000000000000, 0.0000000000000000000 ) ) ;
#50 = PERSON_AND_ORGANIZATION ( #234, #216 ) ;
#51 = CARTESIAN_POINT ( 'NONE',  ( -25.00000000000000000, -25.00000000000000000, 4.000000000000000000 ) ) ;
#52 = ORIENTED_EDGE ( 'NONE', *, *, #73, .T. ) ;
#53 = LINE ( 'NONE', #10, #2 ) ;
#54 = CC_DESIGN_SECURITY_CLASSIFICATION ( #142, ( #174 ) ) ;
#55 = APPROVAL_PERSON_ORGANIZATION ( #11, #116, #187 ) ;
#56 = COORDINATED_UNIVERSAL_TIME_OFFSET ( 5, 0, .BEHIND. ) ;
#57 = ORIENTED_EDGE ( 'NONE', *, *, #160, .T. ) ;
#58 = ORIENTED_EDGE ( 'NONE', *, *, #35, .T. ) ;
#59 = PERSON_AND_ORGANIZATION ( #234, #216 ) ;
#60 = ORIENTED_EDGE ( 'NONE', *, *, #73, .F. ) ;
#61 = DATE_TIME_ROLE ( 'creation_date' ) ;
#62 = DIRECTION ( 'NONE',  ( 1.000000000000000000, 0.0000000000000000000, 0.0000000000000000000 ) ) ;
#63 =( NAMED_UNIT ( * ) SI_UNIT ( $, .STERADIAN. ) SOLID_ANGLE_UNIT ( ) );
#64 = ORIENTED_EDGE ( 'NONE', *, *, #210, .F. ) ;
#65 = CARTESIAN_POINT ( 'NONE',  ( -25.00000000000000400, 25.00000000000000000, 0.0000000000000000000 ) ) ;
#66 = DIRECTION ( 'NONE',  ( 1.000000000000000000, 0.0000000000000000000, 0.0000000000000000000 ) ) ;
#67 = ORIENTED_EDGE ( 'NONE', *, *, #163, .T. ) ;
#68 = CARTESIAN_POINT ( 'NONE',  ( -25.00000000000000400, 25.00000000000000000, 4.000000000000000000 ) ) ;
#69 = ORIENTED_EDGE ( 'NONE', *, *, #153, .T. ) ;
#70 = EDGE_CURVE ( 'NONE', #214, #177, #96, .T. ) ;
#71 = PRODUCT_DEFINITION_SHAPE ( 'NONE', 'NONE',  #107 ) ;
#72 = FACE_OUTER_BOUND ( 'NONE', #83, .T. ) ;
#73 = EDGE_CURVE ( 'NONE', #171, #17, #200, .T. ) ;
#74 = COORDINATED_UNIVERSAL_TIME_OFFSET ( 5, 0, .BEHIND. ) ;
#75 = LOCAL_TIME ( 10, 51, 36.00000000000000000, #106 ) ;
#76 =( LENGTH_UNIT ( ) NAMED_UNIT ( * ) SI_UNIT ( .MILLI., .METRE. ) );
#77 = CARTESIAN_POINT ( 'NONE',  ( 0.0000000000000000000, 0.0000000000000000000, 0.0000000000000000000 ) ) ;
#78 = PRODUCT_RELATED_PRODUCT_CATEGORY ( 'detail', '', ( #94 ) ) ;
#79 = CARTESIAN_POINT ( 'NONE',  ( 25.00000000000000700, -25.00000000000000000, 0.0000000000000000000 ) ) ;
#80 = CARTESIAN_POINT ( 'NONE',  ( 24.99999999999999600, 24.99999999999999600, 0.0000000000000000000 ) ) ;
#81 = FACE_OUTER_BOUND ( 'NONE', #156, .T. ) ;
#82 = CARTESIAN_POINT ( 'NONE',  ( -25.00000000000000400, 25.00000000000000000, 0.0000000000000000000 ) ) ;
#83 = EDGE_LOOP ( 'NONE', ( #64, #99, #5, #119 ) ) ;
#84 =( GEOMETRIC_REPRESENTATION_CONTEXT ( 3 ) GLOBAL_UNCERTAINTY_ASSIGNED_CONTEXT ( ( #193 ) ) GLOBAL_UNIT_ASSIGNED_CONTEXT ( ( #76, #222, #63 ) ) REPRESENTATION_CONTEXT ( 'NONE', 'WORKASPACE' ) );
#85 = VECTOR ( 'NONE', #15, 1000.000000000000000 ) ;
#86 = ADVANCED_BREP_SHAPE_REPRESENTATION ( 'Web Model 84492', ( #237, #43 ), #84 ) ;
#87 = FACE_OUTER_BOUND ( 'NONE', #16, .T. ) ;
#88 = LINE ( 'NONE', #228, #22 ) ;
#89 = DIRECTION ( 'NONE',  ( 1.000000000000000000, 0.0000000000000000000, 0.0000000000000000000 ) ) ;
#90 = APPROVAL ( #219, 'UNSPECIFIED' ) ;
#91 = APPROVAL_STATUS ( 'not_yet_approved' ) ;
#92 = ORIENTED_EDGE ( 'NONE', *, *, #122, .F. ) ;
#93 = DIRECTION ( 'NONE',  ( -0.0000000000000000000, -0.0000000000000000000, -1.000000000000000000 ) ) ;
#94 = PRODUCT ( 'Web Model 84492', 'Web Model 84492', '', ( #13 ) ) ;
#95 = PERSON_AND_ORGANIZATION_ROLE ( 'creator' ) ;
#96 = LINE ( 'NONE', #223, #196 ) ;
#97 = CARTESIAN_POINT ( 'NONE',  ( -25.00000000000000000, -25.00000000000000000, 0.0000000000000000000 ) ) ;
#98 = CARTESIAN_POINT ( 'NONE',  ( 24.99999999999999600, 24.99999999999999600, 0.0000000000000000000 ) ) ;
#99 = ORIENTED_EDGE ( 'NONE', *, *, #160, .F. ) ;
#100 = VECTOR ( 'NONE', #62, 1000.000000000000000 ) ;
#101 = FACE_OUTER_BOUND ( 'NONE', #231, .T. ) ;
#102 = LINE ( 'NONE', #82, #227 ) ;
#103 = ORIENTED_EDGE ( 'NONE', *, *, #153, .F. ) ;
#104 = ORIENTED_EDGE ( 'NONE', *, *, #218, .F. ) ;
#105 = LINE ( 'NONE', #65, #48 ) ;
#106 = COORDINATED_UNIVERSAL_TIME_OFFSET ( 5, 0, .BEHIND. ) ;
#107 = PRODUCT_DEFINITION ( 'UNKNOWN', '', #174, #169 ) ;
#108 = ADVANCED_FACE ( 'NONE', ( #101 ), #42, .F. ) ;
#109 = APPLICATION_CONTEXT ( 'configuration controlled 3d designs of mechanical parts and assemblies' ) ;
#110 = DIRECTION ( 'NONE',  ( -6.938893903907228400E-017, -1.000000000000000000, 0.0000000000000000000 ) ) ;
#111 = DIRECTION ( 'NONE',  ( 0.0000000000000000000, 1.000000000000000000, 0.0000000000000000000 ) ) ;
#112 = LINE ( 'NONE', #97, #100 ) ;
#113 = DIRECTION ( 'NONE',  ( 6.938893903907228400E-017, -1.000000000000000000, 0.0000000000000000000 ) ) ;
#114 = PLANE ( 'NONE',  #158 ) ;
#115 = ORIENTED_EDGE ( 'NONE', *, *, #122, .T. ) ;
#116 = APPROVAL ( #91, 'UNSPECIFIED' ) ;
#117 = CC_DESIGN_APPROVAL ( #116, ( #174 ) ) ;
#118 = PERSON_AND_ORGANIZATION ( #234, #216 ) ;
#119 = ORIENTED_EDGE ( 'NONE', *, *, #163, .F. ) ;
#120 = AXIS2_PLACEMENT_3D ( 'NONE', #154, #147, #49 ) ;
#121 = ORIENTED_EDGE ( 'NONE', *, *, #210, .T. ) ;
#122 = EDGE_CURVE ( 'NONE', #214, #184, #53, .T. ) ;
#123 = CARTESIAN_POINT ( 'NONE',  ( 24.99999999999999600, 24.99999999999999600, 4.000000000000000000 ) ) ;
#124 = DIRECTION ( 'NONE',  ( -0.0000000000000000000, -0.0000000000000000000, -1.000000000000000000 ) ) ;
#125 = PERSON_AND_ORGANIZATION_ROLE ( 'classification_officer' ) ;
#126 = DATE_AND_TIME ( #181, #36 ) ;
#127 = DIRECTION ( 'NONE',  ( -2.081668171172168500E-016, 1.000000000000000000, -0.0000000000000000000 ) ) ;
#128 = LOCAL_TIME ( 10, 51, 36.00000000000000000, #56 ) ;
#129 = APPLICATION_PROTOCOL_DEFINITION ( 'international standard', 'config_control_design', 1994, #109 ) ;
#130 = LINE ( 'NONE', #98, #85 ) ;
#131 = CC_DESIGN_APPROVAL ( #226, ( #142 ) ) ;
#132 = DIRECTION ( 'NONE',  ( 1.000000000000000000, 0.0000000000000000000, 0.0000000000000000000 ) ) ;
#133 = CALENDAR_DATE ( 2017, 1, 2 ) ;
#134 = CARTESIAN_POINT ( 'NONE',  ( -25.00000000000000000, -25.00000000000000000, 0.0000000000000000000 ) ) ;
#135 = VERTEX_POINT ( 'NONE', #80 ) ;
#136 = SHAPE_DEFINITION_REPRESENTATION ( #71, #86 ) ;
#137 = EDGE_CURVE ( 'NONE', #209, #135, #47, .T. ) ;
#138 = VECTOR ( 'NONE', #41, 1000.000000000000000 ) ;
#139 = APPROVAL_PERSON_ORGANIZATION ( #161, #226, #224 ) ;
#140 = ORIENTED_EDGE ( 'NONE', *, *, #70, .F. ) ;
#141 = ADVANCED_FACE ( 'NONE', ( #26 ), #24, .T. ) ;
#142 = SECURITY_CLASSIFICATION ( '', '', #205 ) ;
#143 = ADVANCED_FACE ( 'NONE', ( #178 ), #167, .F. ) ;
#144 = PERSON_AND_ORGANIZATION ( #234, #216 ) ;
#145 = CC_DESIGN_APPROVAL ( #90, ( #107 ) ) ;
#146 = DIRECTION ( 'NONE',  ( 0.0000000000000000000, 0.0000000000000000000, 1.000000000000000000 ) ) ;
#147 = DIRECTION ( 'NONE',  ( -1.000000000000000000, -2.081668171172168500E-016, 0.0000000000000000000 ) ) ;
#148 = PERSON_AND_ORGANIZATION_ROLE ( 'design_owner' ) ;
#149 = CARTESIAN_POINT ( 'NONE',  ( -25.00000000000000000, -25.00000000000000000, 4.000000000000000000 ) ) ;
#150 = APPROVAL_STATUS ( 'not_yet_approved' ) ;
#151 = VECTOR ( 'NONE', #189, 1000.000000000000000 ) ;
#152 = CARTESIAN_POINT ( 'NONE',  ( -25.00000000000000000, -25.00000000000000000, 0.0000000000000000000 ) ) ;
#153 = EDGE_CURVE ( 'NONE', #177, #171, #88, .T. ) ;
#154 = CARTESIAN_POINT ( 'NONE',  ( 24.99999999999999600, 24.99999999999999600, 4.000000000000000000 ) ) ;
#155 = CARTESIAN_POINT ( 'NONE',  ( -25.00000000000000400, 25.00000000000000000, 4.000000000000000000 ) ) ;
#156 = EDGE_LOOP ( 'NONE', ( #121, #39, #140, #115 ) ) ;
#157 = EDGE_LOOP ( 'NONE', ( #20, #69, #159, #3 ) ) ;
#158 = AXIS2_PLACEMENT_3D ( 'NONE', #134, #208, #132 ) ;
#159 = ORIENTED_EDGE ( 'NONE', *, *, #232, .T. ) ;
#160 = EDGE_CURVE ( 'NONE', #135, #184, #105, .T. ) ;
#161 = PERSON_AND_ORGANIZATION ( #234, #216 ) ;
#162 = EDGE_LOOP ( 'NONE', ( #192, #33, #180, #52 ) ) ;
#163 = EDGE_CURVE ( 'NONE', #194, #17, #112, .T. ) ;
#164 = APPLICATION_PROTOCOL_DEFINITION ( 'international standard', 'config_control_design', 1994, #45 ) ;
#165 = CARTESIAN_POINT ( 'NONE',  ( -25.00000000000000000, -25.00000000000000000, 4.000000000000000000 ) ) ;
#166 = AXIS2_PLACEMENT_3D ( 'NONE', #14, #172, #89 ) ;
#167 = PLANE ( 'NONE',  #120 ) ;
#168 = DIRECTION ( 'NONE',  ( 6.938893903907228400E-017, -1.000000000000000000, 0.0000000000000000000 ) ) ;
#169 = DESIGN_CONTEXT ( 'detailed design', #109, 'design' ) ;
#170 = CALENDAR_DATE ( 2017, 1, 2 ) ;
#171 = VERTEX_POINT ( 'NONE', #206 ) ;
#172 = DIRECTION ( 'NONE',  ( -0.0000000000000000000, 0.0000000000000000000, 1.000000000000000000 ) ) ;
#173 = AXIS2_PLACEMENT_3D ( 'NONE', #27, #110, #202 ) ;
#174 = PRODUCT_DEFINITION_FORMATION_WITH_SPECIFIED_SOURCE ( 'ANY', '', #94, .NOT_KNOWN. ) ;
#175 = DATE_AND_TIME ( #199, #75 ) ;
#176 = VECTOR ( 'NONE', #127, 1000.000000000000000 ) ;
#177 = VERTEX_POINT ( 'NONE', #165 ) ;
#178 = FACE_OUTER_BOUND ( 'NONE', #162, .T. ) ;
#179 = COORDINATED_UNIVERSAL_TIME_OFFSET ( 5, 0, .BEHIND. ) ;
#180 = ORIENTED_EDGE ( 'NONE', *, *, #232, .F. ) ;
#181 = CALENDAR_DATE ( 2017, 1, 2 ) ;
#182 = DATE_AND_TIME ( #235, #213 ) ;
#183 = CC_DESIGN_PERSON_AND_ORGANIZATION_ASSIGNMENT ( #144, #185, ( #174 ) ) ;
#184 = VERTEX_POINT ( 'NONE', #230 ) ;
#185 = PERSON_AND_ORGANIZATION_ROLE ( 'design_supplier' ) ;
#186 = PLANE ( 'NONE',  #173 ) ;
#187 = APPROVAL_ROLE ( '' ) ;
#188 = VECTOR ( 'NONE', #6, 1000.000000000000000 ) ;
#189 = DIRECTION ( 'NONE',  ( -0.0000000000000000000, -0.0000000000000000000, -1.000000000000000000 ) ) ;
#190 = EDGE_CURVE ( 'NONE', #17, #135, #130, .T. ) ;
#191 = CARTESIAN_POINT ( 'NONE',  ( 24.99999999999999600, 24.99999999999999600, 4.000000000000000000 ) ) ;
#192 = ORIENTED_EDGE ( 'NONE', *, *, #190, .T. ) ;
#193 = UNCERTAINTY_MEASURE_WITH_UNIT (LENGTH_MEASURE( 1.000000000000000100E-005 ), #76, 'distance_accuracy_value', 'NONE');
#194 = VERTEX_POINT ( 'NONE', #152 ) ;
#195 = AXIS2_PLACEMENT_3D ( 'NONE', #225, #12, #204 ) ;
#196 = VECTOR ( 'NONE', #168, 1000.000000000000000 ) ;
#197 = CC_DESIGN_PERSON_AND_ORGANIZATION_ASSIGNMENT ( #198, #95, ( #174 ) ) ;
#198 = PERSON_AND_ORGANIZATION ( #234, #216 ) ;
#199 = CALENDAR_DATE ( 2017, 1, 2 ) ;
#200 = LINE ( 'NONE', #221, #151 ) ;
#201 = ADVANCED_FACE ( 'NONE', ( #72 ), #114, .F. ) ;
#202 = DIRECTION ( 'NONE',  ( 1.000000000000000000, -6.938893903907228400E-017, 0.0000000000000000000 ) ) ;
#203 = CC_DESIGN_PERSON_AND_ORGANIZATION_ASSIGNMENT ( #59, #125, ( #142 ) ) ;
#204 = DIRECTION ( 'NONE',  ( -6.938893903907228400E-017, 1.000000000000000000, 0.0000000000000000000 ) ) ;
#205 = SECURITY_CLASSIFICATION_LEVEL ( 'unclassified' ) ;
#206 = CARTESIAN_POINT ( 'NONE',  ( 25.00000000000000700, -25.00000000000000000, 4.000000000000000000 ) ) ;
#207 = APPROVAL_ROLE ( '' ) ;
#208 = DIRECTION ( 'NONE',  ( -0.0000000000000000000, 0.0000000000000000000, 1.000000000000000000 ) ) ;
#209 = VERTEX_POINT ( 'NONE', #191 ) ;
#210 = EDGE_CURVE ( 'NONE', #184, #194, #102, .T. ) ;
#211 = CC_DESIGN_PERSON_AND_ORGANIZATION_ASSIGNMENT ( #118, #44, ( #107 ) ) ;
#212 = DATE_AND_TIME ( #170, #128 ) ;
#213 = LOCAL_TIME ( 10, 51, 36.00000000000000000, #74 ) ;
#214 = VERTEX_POINT ( 'NONE', #155 ) ;
#215 = CC_DESIGN_DATE_AND_TIME_ASSIGNMENT ( #212, #28, ( #142 ) ) ;
#216 = ORGANIZATION ( 'UNSPECIFIED', 'UNSPECIFIED', '' ) ;
#217 = APPROVAL_PERSON_ORGANIZATION ( #50, #90, #207 ) ;
#218 = EDGE_CURVE ( 'NONE', #209, #214, #233, .T. ) ;
#219 = APPROVAL_STATUS ( 'not_yet_approved' ) ;
#220 = DIRECTION ( 'NONE',  ( 0.0000000000000000000, -0.0000000000000000000, 1.000000000000000000 ) ) ;
#221 = CARTESIAN_POINT ( 'NONE',  ( 25.00000000000000700, -25.00000000000000000, 4.000000000000000000 ) ) ;
#222 =( NAMED_UNIT ( * ) PLANE_ANGLE_UNIT ( ) SI_UNIT ( $, .RADIAN. ) );
#223 = CARTESIAN_POINT ( 'NONE',  ( -25.00000000000000400, 25.00000000000000000, 4.000000000000000000 ) ) ;
#224 = APPROVAL_ROLE ( '' ) ;
#225 = CARTESIAN_POINT ( 'NONE',  ( -25.00000000000000400, 25.00000000000000000, 4.000000000000000000 ) ) ;
#226 = APPROVAL ( #150, 'UNSPECIFIED' ) ;
#227 = VECTOR ( 'NONE', #113, 1000.000000000000000 ) ;
#228 = CARTESIAN_POINT ( 'NONE',  ( -25.00000000000000000, -25.00000000000000000, 4.000000000000000000 ) ) ;
#229 = DATE_AND_TIME ( #133, #32 ) ;
#230 = CARTESIAN_POINT ( 'NONE',  ( -25.00000000000000400, 25.00000000000000000, 0.0000000000000000000 ) ) ;
#231 = EDGE_LOOP ( 'NONE', ( #67, #60, #103, #58 ) ) ;
#232 = EDGE_CURVE ( 'NONE', #171, #209, #1, .T. ) ;
#233 = LINE ( 'NONE', #68, #138 ) ;
#234 = PERSON ( 'UNSPECIFIED', 'UNSPECIFIED', 'UNSPECIFIED', ('UNSPECIFIED'), ('UNSPECIFIED'), ('UNSPECIFIED') ) ;
#235 = CALENDAR_DATE ( 2017, 1, 2 ) ;
#236 = APPROVAL_DATE_TIME ( #229, #90 ) ;
#237 = MANIFOLD_SOLID_BREP ( 'Extrude1', #38 ) ;
ENDSEC;
END-ISO-10303-21;
