ISO-10303-21;
HEADER;
FILE_DESCRIPTION (( 'STEP AP203' ),
    '1' );
FILE_NAME ('Web Model 46457_18714.step',
    '2021-07-13T13:38:42',
    ( '' ),
    ( '' ),
    'SwSTEP 2.0',
    'SolidWorks 2018',
    '' );
FILE_SCHEMA (( 'CONFIG_CONTROL_DESIGN' ));
ENDSEC;

DATA;
#1 = PRODUCT_RELATED_PRODUCT_CATEGORY ( 'detail', '', ( #138 ) ) ;
#2 = AXIS2_PLACEMENT_3D ( 'NONE', #9, #115, #75 ) ;
#3 = CALENDAR_DATE ( 2021, 13, 7 ) ;
#4 = CALENDAR_DATE ( 2021, 13, 7 ) ;
#5 = FACE_OUTER_BOUND ( 'NONE', #160, .T. ) ;
#6 = EDGE_CURVE ( 'NONE', #80, #163, #56, .T. ) ;
#7 = EDGE_LOOP ( 'NONE', ( #84, #136, #168, #111 ) ) ;
#8 = DIRECTION ( 'NONE',  ( 0.000000000000000000, 0.000000000000000000, -1.000000000000000000 ) ) ;
#9 = CARTESIAN_POINT ( 'NONE',  ( 0.7500000000000000000, 0.000000000000000000, 0.000000000000000000 ) ) ;
#10 = CC_DESIGN_PERSON_AND_ORGANIZATION_ASSIGNMENT ( #117, #63, ( #103 ) ) ;
#11 = EDGE_CURVE ( 'NONE', #14, #80, #139, .T. ) ;
#12 = APPLICATION_PROTOCOL_DEFINITION ( 'international standard', 'config_control_design', 1994, #33 ) ;
#13 = ADVANCED_FACE ( 'NONE', ( #5 ), #135, .T. ) ;
#14 = VERTEX_POINT ( 'NONE', #170 ) ;
#15 = ORIENTED_EDGE ( 'NONE', *, *, #110, .F. ) ;
#16 = AXIS2_PLACEMENT_3D ( 'NONE', #145, #174, #58 ) ;
#17 = AXIS2_PLACEMENT_3D ( 'NONE', #91, #30, #8 ) ;
#18 = CARTESIAN_POINT ( 'NONE',  ( 0.7500000000000000000, 0.000000000000000000, 6.349999999999999645 ) ) ;
#19 = CARTESIAN_POINT ( 'NONE',  ( -0.7500000000000000000, 0.000000000000000000, 0.000000000000000000 ) ) ;
#20 = CARTESIAN_POINT ( 'NONE',  ( -0.7500000000000000000, 7.776507174585692163E-16, -6.349999999999999645 ) ) ;
#21 = PERSON_AND_ORGANIZATION_ROLE ( 'creator' ) ;
#22 = APPROVAL_STATUS ( 'not_yet_approved' ) ;
#23 = CIRCLE ( 'NONE', #17, 6.349999999999999645 ) ;
#24 =( LENGTH_UNIT ( ) NAMED_UNIT ( * ) SI_UNIT ( .MILLI., .METRE. ) );
#25 = CYLINDRICAL_SURFACE ( 'NONE', #114, 6.349999999999999645 ) ;
#26 = APPROVAL_DATE_TIME ( #69, #32 ) ;
#27 = FACE_OUTER_BOUND ( 'NONE', #7, .T. ) ;
#28 = ORIENTED_EDGE ( 'NONE', *, *, #123, .T. ) ;
#29 = CC_DESIGN_APPROVAL ( #113, ( #103 ) ) ;
#30 = DIRECTION ( 'NONE',  ( 1.000000000000000000, 0.000000000000000000, 0.000000000000000000 ) ) ;
#31 = COORDINATED_UNIVERSAL_TIME_OFFSET ( 5, 0, .BEHIND. ) ;
#32 = APPROVAL ( #22, 'UNSPECIFIED' ) ;
#33 = APPLICATION_CONTEXT ( 'configuration controlled 3d designs of mechanical parts and assemblies' ) ;
#34 = APPLICATION_CONTEXT ( 'configuration controlled 3d designs of mechanical parts and assemblies' ) ;
#35 = PERSON_AND_ORGANIZATION ( #154, #53 ) ;
#36 = ADVANCED_FACE ( 'NONE', ( #99 ), #93, .F. ) ;
#37 = APPROVAL_PERSON_ORGANIZATION ( #70, #113, #73 ) ;
#38 = COORDINATED_UNIVERSAL_TIME_OFFSET ( 5, 0, .BEHIND. ) ;
#39 = ORIENTED_EDGE ( 'NONE', *, *, #100, .F. ) ;
#40 = PERSON_AND_ORGANIZATION ( #154, #53 ) ;
#41 = CC_DESIGN_APPROVAL ( #32, ( #121 ) ) ;
#42 = AXIS2_PLACEMENT_3D ( 'NONE', #118, #172, #156 ) ;
#43 = CLOSED_SHELL ( 'NONE', ( #161, #125, #13, #36 ) ) ;
#44 = DATE_TIME_ROLE ( 'classification_date' ) ;
#45 = CALENDAR_DATE ( 2021, 13, 7 ) ;
#46 = DIRECTION ( 'NONE',  ( -1.000000000000000000, -0.000000000000000000, -0.000000000000000000 ) ) ;
#47 = CARTESIAN_POINT ( 'NONE',  ( 0.7500000000000000000, 7.776507174585692163E-16, -6.349999999999999645 ) ) ;
#48 = APPROVAL ( #105, 'UNSPECIFIED' ) ;
#49 = CARTESIAN_POINT ( 'NONE',  ( 0.7500000000000000000, 0.000000000000000000, 0.000000000000000000 ) ) ;
#50 = APPROVAL_STATUS ( 'not_yet_approved' ) ;
#51 = EDGE_LOOP ( 'NONE', ( #39, #55 ) ) ;
#52 = EDGE_CURVE ( 'NONE', #80, #14, #60, .T. ) ;
#53 = ORGANIZATION ( 'UNSPECIFIED', 'UNSPECIFIED', '' ) ;
#54 =( GEOMETRIC_REPRESENTATION_CONTEXT ( 3 ) GLOBAL_UNCERTAINTY_ASSIGNED_CONTEXT ( ( #90 ) ) GLOBAL_UNIT_ASSIGNED_CONTEXT ( ( #24, #120, #94 ) ) REPRESENTATION_CONTEXT ( 'NONE', 'WORKASPACE' ) );
#55 = ORIENTED_EDGE ( 'NONE', *, *, #123, .F. ) ;
#56 = LINE ( 'NONE', #132, #61 ) ;
#57 = APPROVAL_PERSON_ORGANIZATION ( #35, #32, #137 ) ;
#58 = DIRECTION ( 'NONE',  ( 0.000000000000000000, 0.000000000000000000, -1.000000000000000000 ) ) ;
#59 = CARTESIAN_POINT ( 'NONE',  ( 0.000000000000000000, 0.000000000000000000, 0.000000000000000000 ) ) ;
#60 = CIRCLE ( 'NONE', #88, 6.349999999999999645 ) ;
#61 = VECTOR ( 'NONE', #173, 1000.000000000000000 ) ;
#62 = DIRECTION ( 'NONE',  ( 1.000000000000000000, 0.000000000000000000, 0.000000000000000000 ) ) ;
#63 = PERSON_AND_ORGANIZATION_ROLE ( 'creator' ) ;
#64 = PERSON_AND_ORGANIZATION ( #154, #53 ) ;
#65 = DESIGN_CONTEXT ( 'detailed design', #34, 'design' ) ;
#66 = MANIFOLD_SOLID_BREP ( 'Boss-Extrude1', #43 ) ;
#67 = AXIS2_PLACEMENT_3D ( 'NONE', #59, #101, #62 ) ;
#68 = AXIS2_PLACEMENT_3D ( 'NONE', #49, #144, #130 ) ;
#69 = DATE_AND_TIME ( #45, #165 ) ;
#70 = PERSON_AND_ORGANIZATION ( #154, #53 ) ;
#71 = LOCAL_TIME ( 9, 38, 42.00000000000000000, #142 ) ;
#72 = DATE_AND_TIME ( #3, #82 ) ;
#73 = APPROVAL_ROLE ( '' ) ;
#74 = DIRECTION ( 'NONE',  ( 0.000000000000000000, 0.000000000000000000, -1.000000000000000000 ) ) ;
#75 = DIRECTION ( 'NONE',  ( 0.000000000000000000, 0.000000000000000000, 1.000000000000000000 ) ) ;
#76 = COORDINATED_UNIVERSAL_TIME_OFFSET ( 5, 0, .BEHIND. ) ;
#77 = CARTESIAN_POINT ( 'NONE',  ( 0.7500000000000000000, 0.000000000000000000, 0.000000000000000000 ) ) ;
#78 = DIRECTION ( 'NONE',  ( 0.000000000000000000, 0.000000000000000000, -1.000000000000000000 ) ) ;
#79 = DATE_TIME_ROLE ( 'creation_date' ) ;
#80 = VERTEX_POINT ( 'NONE', #47 ) ;
#81 = APPROVAL_PERSON_ORGANIZATION ( #85, #48, #159 ) ;
#82 = LOCAL_TIME ( 9, 38, 42.00000000000000000, #38 ) ;
#83 = APPROVAL_DATE_TIME ( #104, #48 ) ;
#84 = ORIENTED_EDGE ( 'NONE', *, *, #6, .F. ) ;
#85 = PERSON_AND_ORGANIZATION ( #154, #53 ) ;
#86 = CC_DESIGN_APPROVAL ( #48, ( #109 ) ) ;
#87 = VERTEX_POINT ( 'NONE', #89 ) ;
#88 = AXIS2_PLACEMENT_3D ( 'NONE', #77, #92, #74 ) ;
#89 = CARTESIAN_POINT ( 'NONE',  ( -0.7500000000000000000, 0.000000000000000000, 6.349999999999999645 ) ) ;
#90 = UNCERTAINTY_MEASURE_WITH_UNIT (LENGTH_MEASURE( 1.000000000000000082E-05 ), #24, 'distance_accuracy_value', 'NONE');
#91 = CARTESIAN_POINT ( 'NONE',  ( -0.7500000000000000000, 0.000000000000000000, 0.000000000000000000 ) ) ;
#92 = DIRECTION ( 'NONE',  ( 1.000000000000000000, 0.000000000000000000, 0.000000000000000000 ) ) ;
#93 = PLANE ( 'NONE',  #98 ) ;
#94 =( NAMED_UNIT ( * ) SI_UNIT ( $, .STERADIAN. ) SOLID_ANGLE_UNIT ( ) );
#95 = ORIENTED_EDGE ( 'NONE', *, *, #52, .T. ) ;
#96 = CC_DESIGN_PERSON_AND_ORGANIZATION_ASSIGNMENT ( #40, #21, ( #109 ) ) ;
#97 = ORIENTED_EDGE ( 'NONE', *, *, #52, .F. ) ;
#98 = AXIS2_PLACEMENT_3D ( 'NONE', #19, #102, #78 ) ;
#99 = FACE_OUTER_BOUND ( 'NONE', #51, .T. ) ;
#100 = EDGE_CURVE ( 'NONE', #87, #163, #23, .T. ) ;
#101 = DIRECTION ( 'NONE',  ( 0.000000000000000000, 0.000000000000000000, 1.000000000000000000 ) ) ;
#102 = DIRECTION ( 'NONE',  ( 1.000000000000000000, 0.000000000000000000, 0.000000000000000000 ) ) ;
#103 = PRODUCT_DEFINITION_FORMATION_WITH_SPECIFIED_SOURCE ( 'ANY', '', #138, .NOT_KNOWN. ) ;
#104 = DATE_AND_TIME ( #106, #71 ) ;
#105 = APPROVAL_STATUS ( 'not_yet_approved' ) ;
#106 = CALENDAR_DATE ( 2021, 13, 7 ) ;
#107 = MECHANICAL_CONTEXT ( 'NONE', #33, 'mechanical' ) ;
#108 = APPROVAL_DATE_TIME ( #141, #113 ) ;
#109 = PRODUCT_DEFINITION ( 'UNKNOWN', '', #103, #65 ) ;
#110 = EDGE_CURVE ( 'NONE', #14, #87, #167, .T. ) ;
#111 = ORIENTED_EDGE ( 'NONE', *, *, #100, .T. ) ;
#112 = LOCAL_TIME ( 9, 38, 42.00000000000000000, #76 ) ;
#113 = APPROVAL ( #50, 'UNSPECIFIED' ) ;
#114 = AXIS2_PLACEMENT_3D ( 'NONE', #119, #46, #116 ) ;
#115 = DIRECTION ( 'NONE',  ( -1.000000000000000000, -0.000000000000000000, -0.000000000000000000 ) ) ;
#116 = DIRECTION ( 'NONE',  ( 0.000000000000000000, 0.000000000000000000, 1.000000000000000000 ) ) ;
#117 = PERSON_AND_ORGANIZATION ( #154, #53 ) ;
#118 = CARTESIAN_POINT ( 'NONE',  ( -0.7500000000000000000, 0.000000000000000000, 0.000000000000000000 ) ) ;
#119 = CARTESIAN_POINT ( 'NONE',  ( 0.7500000000000000000, 0.000000000000000000, 0.000000000000000000 ) ) ;
#120 =( NAMED_UNIT ( * ) PLANE_ANGLE_UNIT ( ) SI_UNIT ( $, .RADIAN. ) );
#121 = SECURITY_CLASSIFICATION ( '', '', #143 ) ;
#122 = PERSON_AND_ORGANIZATION_ROLE ( 'design_owner' ) ;
#123 = EDGE_CURVE ( 'NONE', #163, #87, #148, .T. ) ;
#124 = PERSON_AND_ORGANIZATION ( #154, #53 ) ;
#125 = ADVANCED_FACE ( 'NONE', ( #27 ), #171, .T. ) ;
#126 = CC_DESIGN_DATE_AND_TIME_ASSIGNMENT ( #146, #79, ( #109 ) ) ;
#127 = ORIENTED_EDGE ( 'NONE', *, *, #11, .T. ) ;
#128 = FACE_OUTER_BOUND ( 'NONE', #152, .T. ) ;
#129 = ORIENTED_EDGE ( 'NONE', *, *, #6, .T. ) ;
#130 = DIRECTION ( 'NONE',  ( 0.000000000000000000, 0.000000000000000000, -1.000000000000000000 ) ) ;
#131 = PERSON_AND_ORGANIZATION_ROLE ( 'classification_officer' ) ;
#132 = CARTESIAN_POINT ( 'NONE',  ( 0.7500000000000000000, 7.776507174585692163E-16, -6.349999999999999645 ) ) ;
#133 = COORDINATED_UNIVERSAL_TIME_OFFSET ( 5, 0, .BEHIND. ) ;
#134 = CC_DESIGN_PERSON_AND_ORGANIZATION_ASSIGNMENT ( #151, #169, ( #103 ) ) ;
#135 = PLANE ( 'NONE',  #68 ) ;
#136 = ORIENTED_EDGE ( 'NONE', *, *, #11, .F. ) ;
#137 = APPROVAL_ROLE ( '' ) ;
#138 = PRODUCT ( 'Web Model 46457_18714', 'Web Model 46457_18714', '', ( #107 ) ) ;
#139 = CIRCLE ( 'NONE', #16, 6.349999999999999645 ) ;
#140 = CC_DESIGN_PERSON_AND_ORGANIZATION_ASSIGNMENT ( #64, #131, ( #121 ) ) ;
#141 = DATE_AND_TIME ( #175, #155 ) ;
#142 = COORDINATED_UNIVERSAL_TIME_OFFSET ( 5, 0, .BEHIND. ) ;
#143 = SECURITY_CLASSIFICATION_LEVEL ( 'unclassified' ) ;
#144 = DIRECTION ( 'NONE',  ( 1.000000000000000000, 0.000000000000000000, 0.000000000000000000 ) ) ;
#145 = CARTESIAN_POINT ( 'NONE',  ( 0.7500000000000000000, 0.000000000000000000, 0.000000000000000000 ) ) ;
#146 = DATE_AND_TIME ( #4, #112 ) ;
#147 = APPLICATION_PROTOCOL_DEFINITION ( 'international standard', 'config_control_design', 1994, #34 ) ;
#148 = CIRCLE ( 'NONE', #42, 6.349999999999999645 ) ;
#149 = SHAPE_DEFINITION_REPRESENTATION ( #164, #153 ) ;
#150 = CC_DESIGN_DATE_AND_TIME_ASSIGNMENT ( #72, #44, ( #121 ) ) ;
#151 = PERSON_AND_ORGANIZATION ( #154, #53 ) ;
#152 = EDGE_LOOP ( 'NONE', ( #97, #129, #28, #15 ) ) ;
#153 = ADVANCED_BREP_SHAPE_REPRESENTATION ( 'Web Model 46457_18714', ( #66, #67 ), #54 ) ;
#154 = PERSON ( 'UNSPECIFIED', 'UNSPECIFIED', 'UNSPECIFIED', ('UNSPECIFIED'), ('UNSPECIFIED'), ('UNSPECIFIED') ) ;
#155 = LOCAL_TIME ( 9, 38, 42.00000000000000000, #31 ) ;
#156 = DIRECTION ( 'NONE',  ( 0.000000000000000000, 0.000000000000000000, -1.000000000000000000 ) ) ;
#157 = DIRECTION ( 'NONE',  ( -1.000000000000000000, -0.000000000000000000, -0.000000000000000000 ) ) ;
#158 = CC_DESIGN_SECURITY_CLASSIFICATION ( #121, ( #103 ) ) ;
#159 = APPROVAL_ROLE ( '' ) ;
#160 = EDGE_LOOP ( 'NONE', ( #127, #95 ) ) ;
#161 = ADVANCED_FACE ( 'NONE', ( #128 ), #25, .T. ) ;
#162 = VECTOR ( 'NONE', #157, 1000.000000000000000 ) ;
#163 = VERTEX_POINT ( 'NONE', #20 ) ;
#164 = PRODUCT_DEFINITION_SHAPE ( 'NONE', 'NONE',  #109 ) ;
#165 = LOCAL_TIME ( 9, 38, 42.00000000000000000, #133 ) ;
#166 = CC_DESIGN_PERSON_AND_ORGANIZATION_ASSIGNMENT ( #124, #122, ( #138 ) ) ;
#167 = LINE ( 'NONE', #18, #162 ) ;
#168 = ORIENTED_EDGE ( 'NONE', *, *, #110, .T. ) ;
#169 = PERSON_AND_ORGANIZATION_ROLE ( 'design_supplier' ) ;
#170 = CARTESIAN_POINT ( 'NONE',  ( 0.7500000000000000000, 0.000000000000000000, 6.349999999999999645 ) ) ;
#171 = CYLINDRICAL_SURFACE ( 'NONE', #2, 6.349999999999999645 ) ;
#172 = DIRECTION ( 'NONE',  ( 1.000000000000000000, 0.000000000000000000, 0.000000000000000000 ) ) ;
#173 = DIRECTION ( 'NONE',  ( -1.000000000000000000, -0.000000000000000000, -0.000000000000000000 ) ) ;
#174 = DIRECTION ( 'NONE',  ( 1.000000000000000000, 0.000000000000000000, 0.000000000000000000 ) ) ;
#175 = CALENDAR_DATE ( 2021, 13, 7 ) ;
ENDSEC;
END-ISO-10303-21;
