ISO-10303-21;
HEADER;
FILE_DESCRIPTION (( 'STEP AP203' ),
    '1' );
FILE_NAME ('Web Model 17671_17671.step',
    '2021-08-09T16:45:51',
    ( '' ),
    ( '' ),
    'SwSTEP 2.0',
    'SolidWorks 2018',
    '' );
FILE_SCHEMA (( 'CONFIG_CONTROL_DESIGN' ));
ENDSEC;

DATA;
#1 = APPROVAL ( #10, 'UNSPECIFIED' ) ;
#2 = CARTESIAN_POINT ( 'NONE',  ( 0.000000000000000000, 0.000000000000000000, 8.000000000000000000 ) ) ;
#3 = DATE_AND_TIME ( #153, #156 ) ;
#4 = CIRCLE ( 'NONE', #83, 75.00000000000001421 ) ;
#5 = CARTESIAN_POINT ( 'NONE',  ( 75.00000000000001421, 9.184850993605150311E-15, 8.000000000000000000 ) ) ;
#6 = APPLICATION_PROTOCOL_DEFINITION ( 'international standard', 'config_control_design', 1994, #128 ) ;
#7 = PERSON_AND_ORGANIZATION ( #129, #75 ) ;
#8 = PERSON_AND_ORGANIZATION_ROLE ( 'creator' ) ;
#9 = SECURITY_CLASSIFICATION_LEVEL ( 'unclassified' ) ;
#10 = APPROVAL_STATUS ( 'not_yet_approved' ) ;
#11 = DATE_AND_TIME ( #59, #32 ) ;
#12 = AXIS2_PLACEMENT_3D ( 'NONE', #2, #19, #20 ) ;
#13 = DATE_AND_TIME ( #161, #60 ) ;
#14 = VERTEX_POINT ( 'NONE', #5 ) ;
#15 = LOCAL_TIME ( 12, 45, 51.00000000000000000, #72 ) ;
#16 = CIRCLE ( 'NONE', #168, 75.00000000000001421 ) ;
#17 = EDGE_LOOP ( 'NONE', ( #62, #154, #98, #47 ) ) ;
#18 = AXIS2_PLACEMENT_3D ( 'NONE', #159, #68, #127 ) ;
#19 = DIRECTION ( 'NONE',  ( -0.000000000000000000, -0.000000000000000000, -1.000000000000000000 ) ) ;
#20 = DIRECTION ( 'NONE',  ( -1.000000000000000000, 0.000000000000000000, 0.000000000000000000 ) ) ;
#21 = ORIENTED_EDGE ( 'NONE', *, *, #110, .F. ) ;
#22 = PLANE ( 'NONE',  #158 ) ;
#23 = CARTESIAN_POINT ( 'NONE',  ( 0.000000000000000000, 0.000000000000000000, 8.000000000000000000 ) ) ;
#24 = ADVANCED_FACE ( 'NONE', ( #97 ), #89, .T. ) ;
#25 = COORDINATED_UNIVERSAL_TIME_OFFSET ( 5, 0, .BEHIND. ) ;
#26 = FACE_OUTER_BOUND ( 'NONE', #151, .T. ) ;
#27 = PERSON_AND_ORGANIZATION_ROLE ( 'creator' ) ;
#28 = DIRECTION ( 'NONE',  ( 1.000000000000000000, 0.000000000000000000, 0.000000000000000000 ) ) ;
#29 = APPLICATION_CONTEXT ( 'configuration controlled 3d designs of mechanical parts and assemblies' ) ;
#30 = APPROVAL_PERSON_ORGANIZATION ( #148, #64, #43 ) ;
#31 = CC_DESIGN_PERSON_AND_ORGANIZATION_ASSIGNMENT ( #7, #27, ( #88 ) ) ;
#32 = LOCAL_TIME ( 12, 45, 51.00000000000000000, #106 ) ;
#33 = MANIFOLD_SOLID_BREP ( 'Boss-Extrude1', #119 ) ;
#34 = AXIS2_PLACEMENT_3D ( 'NONE', #113, #171, #105 ) ;
#35 = PERSON_AND_ORGANIZATION ( #129, #75 ) ;
#36 = DIRECTION ( 'NONE',  ( -0.000000000000000000, -0.000000000000000000, -1.000000000000000000 ) ) ;
#37 = ORIENTED_EDGE ( 'NONE', *, *, #46, .T. ) ;
#38 = CC_DESIGN_PERSON_AND_ORGANIZATION_ASSIGNMENT ( #35, #141, ( #70 ) ) ;
#39 = ORIENTED_EDGE ( 'NONE', *, *, #152, .F. ) ;
#40 = APPROVAL_ROLE ( '' ) ;
#41 = CC_DESIGN_DATE_AND_TIME_ASSIGNMENT ( #163, #143, ( #88 ) ) ;
#42 =( LENGTH_UNIT ( ) NAMED_UNIT ( * ) SI_UNIT ( .MILLI., .METRE. ) );
#43 = APPROVAL_ROLE ( '' ) ;
#44 = DATE_AND_TIME ( #80, #107 ) ;
#45 = ORIENTED_EDGE ( 'NONE', *, *, #167, .F. ) ;
#46 = EDGE_CURVE ( 'NONE', #14, #51, #87, .T. ) ;
#47 = ORIENTED_EDGE ( 'NONE', *, *, #167, .T. ) ;
#48 = PRODUCT_DEFINITION_FORMATION_WITH_SPECIFIED_SOURCE ( 'ANY', '', #70, .NOT_KNOWN. ) ;
#49 = LINE ( 'NONE', #102, #104 ) ;
#50 = CYLINDRICAL_SURFACE ( 'NONE', #53, 75.00000000000001421 ) ;
#51 = VERTEX_POINT ( 'NONE', #78 ) ;
#52 = DESIGN_CONTEXT ( 'detailed design', #128, 'design' ) ;
#53 = AXIS2_PLACEMENT_3D ( 'NONE', #23, #36, #79 ) ;
#54 = DIRECTION ( 'NONE',  ( 0.000000000000000000, 0.000000000000000000, 1.000000000000000000 ) ) ;
#55 = ADVANCED_FACE ( 'NONE', ( #149 ), #50, .T. ) ;
#56 = CARTESIAN_POINT ( 'NONE',  ( 0.000000000000000000, 0.000000000000000000, 8.000000000000000000 ) ) ;
#57 = PRODUCT_DEFINITION_SHAPE ( 'NONE', 'NONE',  #88 ) ;
#58 = PERSON_AND_ORGANIZATION_ROLE ( 'design_supplier' ) ;
#59 = CALENDAR_DATE ( 2021, 9, 8 ) ;
#60 = LOCAL_TIME ( 12, 45, 51.00000000000000000, #25 ) ;
#61 = CC_DESIGN_SECURITY_CLASSIFICATION ( #164, ( #48 ) ) ;
#62 = ORIENTED_EDGE ( 'NONE', *, *, #46, .F. ) ;
#63 = EDGE_LOOP ( 'NONE', ( #21, #37, #157, #147 ) ) ;
#64 = APPROVAL ( #84, 'UNSPECIFIED' ) ;
#65 = PERSON_AND_ORGANIZATION ( #129, #75 ) ;
#66 = PERSON_AND_ORGANIZATION ( #129, #75 ) ;
#67 = DIRECTION ( 'NONE',  ( 0.000000000000000000, 0.000000000000000000, 1.000000000000000000 ) ) ;
#68 = DIRECTION ( 'NONE',  ( 0.000000000000000000, 0.000000000000000000, 1.000000000000000000 ) ) ;
#69 = CC_DESIGN_PERSON_AND_ORGANIZATION_ASSIGNMENT ( #65, #58, ( #48 ) ) ;
#70 = PRODUCT ( 'Web Model 17671_17671', 'Web Model 17671_17671', '', ( #96 ) ) ;
#71 = EDGE_CURVE ( 'NONE', #166, #150, #49, .T. ) ;
#72 = COORDINATED_UNIVERSAL_TIME_OFFSET ( 5, 0, .BEHIND. ) ;
#73 = CIRCLE ( 'NONE', #18, 75.00000000000001421 ) ;
#74 = ORIENTED_EDGE ( 'NONE', *, *, #162, .T. ) ;
#75 = ORGANIZATION ( 'UNSPECIFIED', 'UNSPECIFIED', '' ) ;
#76 = CARTESIAN_POINT ( 'NONE',  ( -75.00000000000001421, 0.000000000000000000, 0.000000000000000000 ) ) ;
#77 = AXIS2_PLACEMENT_3D ( 'NONE', #56, #54, #137 ) ;
#78 = CARTESIAN_POINT ( 'NONE',  ( 75.00000000000001421, 9.184850993605150311E-15, 0.000000000000000000 ) ) ;
#79 = DIRECTION ( 'NONE',  ( -1.000000000000000000, 0.000000000000000000, 0.000000000000000000 ) ) ;
#80 = CALENDAR_DATE ( 2021, 9, 8 ) ;
#81 = CIRCLE ( 'NONE', #138, 75.00000000000001421 ) ;
#82 = ADVANCED_FACE ( 'NONE', ( #26 ), #124, .T. ) ;
#83 = AXIS2_PLACEMENT_3D ( 'NONE', #126, #86, #117 ) ;
#84 = APPROVAL_STATUS ( 'not_yet_approved' ) ;
#85 =( NAMED_UNIT ( * ) PLANE_ANGLE_UNIT ( ) SI_UNIT ( $, .RADIAN. ) );
#86 = DIRECTION ( 'NONE',  ( 0.000000000000000000, 0.000000000000000000, 1.000000000000000000 ) ) ;
#87 = LINE ( 'NONE', #155, #135 ) ;
#88 = PRODUCT_DEFINITION ( 'UNKNOWN', '', #48, #52 ) ;
#89 = CYLINDRICAL_SURFACE ( 'NONE', #12, 75.00000000000001421 ) ;
#90 = DIRECTION ( 'NONE',  ( 1.000000000000000000, 0.000000000000000000, -0.000000000000000000 ) ) ;
#91 = COORDINATED_UNIVERSAL_TIME_OFFSET ( 5, 0, .BEHIND. ) ;
#92 = DIRECTION ( 'NONE',  ( 0.000000000000000000, 0.000000000000000000, 1.000000000000000000 ) ) ;
#93 = APPROVAL ( #115, 'UNSPECIFIED' ) ;
#94 = DIRECTION ( 'NONE',  ( 1.000000000000000000, 0.000000000000000000, 0.000000000000000000 ) ) ;
#95 = APPROVAL_DATE_TIME ( #13, #64 ) ;
#96 = MECHANICAL_CONTEXT ( 'NONE', #29, 'mechanical' ) ;
#97 = FACE_OUTER_BOUND ( 'NONE', #17, .T. ) ;
#98 = ORIENTED_EDGE ( 'NONE', *, *, #71, .T. ) ;
#99 = PRODUCT_RELATED_PRODUCT_CATEGORY ( 'detail', '', ( #70 ) ) ;
#100 = CC_DESIGN_PERSON_AND_ORGANIZATION_ASSIGNMENT ( #121, #8, ( #48 ) ) ;
#101 = ADVANCED_FACE ( 'NONE', ( #165 ), #22, .F. ) ;
#102 = CARTESIAN_POINT ( 'NONE',  ( -75.00000000000001421, 0.000000000000000000, 8.000000000000000000 ) ) ;
#103 = CARTESIAN_POINT ( 'NONE',  ( 0.000000000000000000, 0.000000000000000000, 0.000000000000000000 ) ) ;
#104 = VECTOR ( 'NONE', #136, 1000.000000000000000 ) ;
#105 = DIRECTION ( 'NONE',  ( 1.000000000000000000, 0.000000000000000000, 0.000000000000000000 ) ) ;
#106 = COORDINATED_UNIVERSAL_TIME_OFFSET ( 5, 0, .BEHIND. ) ;
#107 = LOCAL_TIME ( 12, 45, 51.00000000000000000, #144 ) ;
#108 = SHAPE_DEFINITION_REPRESENTATION ( #57, #145 ) ;
#109 = PERSON_AND_ORGANIZATION ( #129, #75 ) ;
#110 = EDGE_CURVE ( 'NONE', #14, #166, #73, .T. ) ;
#111 = DIRECTION ( 'NONE',  ( 0.000000000000000000, 0.000000000000000000, 1.000000000000000000 ) ) ;
#112 =( NAMED_UNIT ( * ) SI_UNIT ( $, .STERADIAN. ) SOLID_ANGLE_UNIT ( ) );
#113 = CARTESIAN_POINT ( 'NONE',  ( 0.000000000000000000, 0.000000000000000000, 0.000000000000000000 ) ) ;
#114 = APPROVAL_DATE_TIME ( #11, #1 ) ;
#115 = APPROVAL_STATUS ( 'not_yet_approved' ) ;
#116 = EDGE_LOOP ( 'NONE', ( #45, #39 ) ) ;
#117 = DIRECTION ( 'NONE',  ( 1.000000000000000000, 0.000000000000000000, 0.000000000000000000 ) ) ;
#118 = CC_DESIGN_APPROVAL ( #1, ( #88 ) ) ;
#119 = CLOSED_SHELL ( 'NONE', ( #55, #24, #82, #101 ) ) ;
#120 = CC_DESIGN_APPROVAL ( #64, ( #48 ) ) ;
#121 = PERSON_AND_ORGANIZATION ( #129, #75 ) ;
#122 = APPROVAL_PERSON_ORGANIZATION ( #134, #93, #40 ) ;
#123 = DIRECTION ( 'NONE',  ( -0.000000000000000000, -0.000000000000000000, -1.000000000000000000 ) ) ;
#124 = PLANE ( 'NONE',  #77 ) ;
#125 = DATE_TIME_ROLE ( 'classification_date' ) ;
#126 = CARTESIAN_POINT ( 'NONE',  ( 0.000000000000000000, 0.000000000000000000, 0.000000000000000000 ) ) ;
#127 = DIRECTION ( 'NONE',  ( 1.000000000000000000, 0.000000000000000000, 0.000000000000000000 ) ) ;
#128 = APPLICATION_CONTEXT ( 'configuration controlled 3d designs of mechanical parts and assemblies' ) ;
#129 = PERSON ( 'UNSPECIFIED', 'UNSPECIFIED', 'UNSPECIFIED', ('UNSPECIFIED'), ('UNSPECIFIED'), ('UNSPECIFIED') ) ;
#130 = CALENDAR_DATE ( 2021, 9, 8 ) ;
#131 = APPROVAL_ROLE ( '' ) ;
#132 = APPROVAL_PERSON_ORGANIZATION ( #66, #1, #131 ) ;
#133 = UNCERTAINTY_MEASURE_WITH_UNIT (LENGTH_MEASURE( 1.000000000000000082E-05 ), #42, 'distance_accuracy_value', 'NONE');
#134 = PERSON_AND_ORGANIZATION ( #129, #75 ) ;
#135 = VECTOR ( 'NONE', #123, 1000.000000000000000 ) ;
#136 = DIRECTION ( 'NONE',  ( -0.000000000000000000, -0.000000000000000000, -1.000000000000000000 ) ) ;
#137 = DIRECTION ( 'NONE',  ( 1.000000000000000000, 0.000000000000000000, -0.000000000000000000 ) ) ;
#138 = AXIS2_PLACEMENT_3D ( 'NONE', #170, #92, #94 ) ;
#139 = CARTESIAN_POINT ( 'NONE',  ( 0.000000000000000000, 0.000000000000000000, 0.000000000000000000 ) ) ;
#140 = ORIENTED_EDGE ( 'NONE', *, *, #110, .T. ) ;
#141 = PERSON_AND_ORGANIZATION_ROLE ( 'design_owner' ) ;
#142 = PERSON_AND_ORGANIZATION_ROLE ( 'classification_officer' ) ;
#143 = DATE_TIME_ROLE ( 'creation_date' ) ;
#144 = COORDINATED_UNIVERSAL_TIME_OFFSET ( 5, 0, .BEHIND. ) ;
#145 = ADVANCED_BREP_SHAPE_REPRESENTATION ( 'Web Model 17671_17671', ( #33, #34 ), #173 ) ;
#146 = CC_DESIGN_APPROVAL ( #93, ( #164 ) ) ;
#147 = ORIENTED_EDGE ( 'NONE', *, *, #71, .F. ) ;
#148 = PERSON_AND_ORGANIZATION ( #129, #75 ) ;
#149 = FACE_OUTER_BOUND ( 'NONE', #63, .T. ) ;
#150 = VERTEX_POINT ( 'NONE', #76 ) ;
#151 = EDGE_LOOP ( 'NONE', ( #74, #140 ) ) ;
#152 = EDGE_CURVE ( 'NONE', #51, #150, #4, .T. ) ;
#153 = CALENDAR_DATE ( 2021, 9, 8 ) ;
#154 = ORIENTED_EDGE ( 'NONE', *, *, #162, .F. ) ;
#155 = CARTESIAN_POINT ( 'NONE',  ( 75.00000000000001421, 9.184850993605150311E-15, 8.000000000000000000 ) ) ;
#156 = LOCAL_TIME ( 12, 45, 51.00000000000000000, #91 ) ;
#157 = ORIENTED_EDGE ( 'NONE', *, *, #152, .T. ) ;
#158 = AXIS2_PLACEMENT_3D ( 'NONE', #139, #111, #90 ) ;
#159 = CARTESIAN_POINT ( 'NONE',  ( 0.000000000000000000, 0.000000000000000000, 8.000000000000000000 ) ) ;
#160 = APPLICATION_PROTOCOL_DEFINITION ( 'international standard', 'config_control_design', 1994, #29 ) ;
#161 = CALENDAR_DATE ( 2021, 9, 8 ) ;
#162 = EDGE_CURVE ( 'NONE', #166, #14, #81, .T. ) ;
#163 = DATE_AND_TIME ( #130, #15 ) ;
#164 = SECURITY_CLASSIFICATION ( '', '', #9 ) ;
#165 = FACE_OUTER_BOUND ( 'NONE', #116, .T. ) ;
#166 = VERTEX_POINT ( 'NONE', #169 ) ;
#167 = EDGE_CURVE ( 'NONE', #150, #51, #16, .T. ) ;
#168 = AXIS2_PLACEMENT_3D ( 'NONE', #103, #67, #28 ) ;
#169 = CARTESIAN_POINT ( 'NONE',  ( -75.00000000000001421, 0.000000000000000000, 8.000000000000000000 ) ) ;
#170 = CARTESIAN_POINT ( 'NONE',  ( 0.000000000000000000, 0.000000000000000000, 8.000000000000000000 ) ) ;
#171 = DIRECTION ( 'NONE',  ( 0.000000000000000000, 0.000000000000000000, 1.000000000000000000 ) ) ;
#172 = CC_DESIGN_PERSON_AND_ORGANIZATION_ASSIGNMENT ( #109, #142, ( #164 ) ) ;
#173 =( GEOMETRIC_REPRESENTATION_CONTEXT ( 3 ) GLOBAL_UNCERTAINTY_ASSIGNED_CONTEXT ( ( #133 ) ) GLOBAL_UNIT_ASSIGNED_CONTEXT ( ( #42, #85, #112 ) ) REPRESENTATION_CONTEXT ( 'NONE', 'WORKASPACE' ) );
#174 = APPROVAL_DATE_TIME ( #44, #93 ) ;
#175 = CC_DESIGN_DATE_AND_TIME_ASSIGNMENT ( #3, #125, ( #164 ) ) ;
ENDSEC;
END-ISO-10303-21;
