ISO-10303-21;
HEADER;
FILE_DESCRIPTION (( 'STEP AP203' ),
    '1' );
FILE_NAME ('Web Model 43215_43218.step',
    '2018-03-12T19:16:53',
    ( '' ),
    ( '' ),
    'SwSTEP 2.0',
    'SolidWorks 2016',
    '' );
FILE_SCHEMA (( 'CONFIG_CONTROL_DESIGN' ));
ENDSEC;

DATA;
#1 = PERSON_AND_ORGANIZATION_ROLE ( 'design_supplier' ) ;
#2 = CALENDAR_DATE ( 2018, 12, 3 ) ;
#3 = LINE ( 'NONE', #97, #52 ) ;
#4 = DIRECTION ( 'NONE',  ( 0.0000000000000000000, 0.0000000000000000000, 1.000000000000000000 ) ) ;
#5 = DIRECTION ( 'NONE',  ( 0.0000000000000000000, 0.0000000000000000000, -1.000000000000000000 ) ) ;
#6 = CARTESIAN_POINT ( 'NONE',  ( 4.750000000000000000, -6.250000000000007100, 12.49999999999999600 ) ) ;
#7 = FACE_OUTER_BOUND ( 'NONE', #91, .T. ) ;
#8 = LOCAL_TIME ( 15, 16, 53.00000000000000000, #82 ) ;
#9 = PERSON_AND_ORGANIZATION_ROLE ( 'design_owner' ) ;
#10 = ORIENTED_EDGE ( 'NONE', *, *, #28, .T. ) ;
#11 = LOCAL_TIME ( 15, 16, 53.00000000000000000, #180 ) ;
#12 = VECTOR ( 'NONE', #75, 1000.000000000000000 ) ;
#13 = COORDINATED_UNIVERSAL_TIME_OFFSET ( 5, 0, .BEHIND. ) ;
#14 = ORIENTED_EDGE ( 'NONE', *, *, #178, .T. ) ;
#15 = CARTESIAN_POINT ( 'NONE',  ( 4.750000000000000000, -6.250000000000007100, -12.49999999999999600 ) ) ;
#16 =( GEOMETRIC_REPRESENTATION_CONTEXT ( 3 ) GLOBAL_UNCERTAINTY_ASSIGNED_CONTEXT ( ( #218 ) ) GLOBAL_UNIT_ASSIGNED_CONTEXT ( ( #119, #134, #86 ) ) REPRESENTATION_CONTEXT ( 'NONE', 'WORKASPACE' ) );
#17 = VECTOR ( 'NONE', #237, 1000.000000000000000 ) ;
#18 = VERTEX_POINT ( 'NONE', #168 ) ;
#19 = PERSON_AND_ORGANIZATION ( #99, #185 ) ;
#20 = PLANE ( 'NONE',  #38 ) ;
#21 = CLOSED_SHELL ( 'NONE', ( #167, #217, #58, #74, #215, #126 ) ) ;
#22 = CARTESIAN_POINT ( 'NONE',  ( 4.750000000000000000, 6.249999999999996400, 12.49999999999999800 ) ) ;
#23 = CARTESIAN_POINT ( 'NONE',  ( -4.750000000000000000, -6.250000000000007100, 12.49999999999999600 ) ) ;
#24 = CARTESIAN_POINT ( 'NONE',  ( 4.750000000000000000, -6.250000000000007100, 12.49999999999999600 ) ) ;
#25 = ADVANCED_BREP_SHAPE_REPRESENTATION ( 'Web Model 43215_43218', ( #29, #87 ), #16 ) ;
#26 = FACE_OUTER_BOUND ( 'NONE', #188, .T. ) ;
#27 = ORIENTED_EDGE ( 'NONE', *, *, #76, .F. ) ;
#28 = EDGE_CURVE ( 'NONE', #18, #73, #65, .T. ) ;
#29 = MANIFOLD_SOLID_BREP ( 'Boss-Extrude1', #21 ) ;
#30 = LINE ( 'NONE', #204, #170 ) ;
#31 = CALENDAR_DATE ( 2018, 12, 3 ) ;
#32 = ORIENTED_EDGE ( 'NONE', *, *, #191, .T. ) ;
#33 = SECURITY_CLASSIFICATION_LEVEL ( 'unclassified' ) ;
#34 = PERSON_AND_ORGANIZATION_ROLE ( 'creator' ) ;
#35 = ORIENTED_EDGE ( 'NONE', *, *, #112, .F. ) ;
#36 = APPROVAL ( #66, 'UNSPECIFIED' ) ;
#37 = ORIENTED_EDGE ( 'NONE', *, *, #173, .T. ) ;
#38 = AXIS2_PLACEMENT_3D ( 'NONE', #93, #113, #234 ) ;
#39 = DATE_AND_TIME ( #135, #77 ) ;
#40 = VERTEX_POINT ( 'NONE', #15 ) ;
#41 = ORIENTED_EDGE ( 'NONE', *, *, #149, .T. ) ;
#42 = DIRECTION ( 'NONE',  ( 0.0000000000000000000, 0.0000000000000000000, -1.000000000000000000 ) ) ;
#43 = ORIENTED_EDGE ( 'NONE', *, *, #178, .F. ) ;
#44 = DIRECTION ( 'NONE',  ( 0.0000000000000000000, 1.387778780781445200E-016, -1.000000000000000000 ) ) ;
#45 = AXIS2_PLACEMENT_3D ( 'NONE', #57, #216, #109 ) ;
#46 = PLANE ( 'NONE',  #197 ) ;
#47 = DIRECTION ( 'NONE',  ( 1.000000000000000000, 0.0000000000000000000, 0.0000000000000000000 ) ) ;
#48 = MECHANICAL_CONTEXT ( 'NONE', #177, 'mechanical' ) ;
#49 = CARTESIAN_POINT ( 'NONE',  ( 0.0000000000000000000, 0.0000000000000000000, 0.0000000000000000000 ) ) ;
#50 = DATE_TIME_ROLE ( 'creation_date' ) ;
#51 = APPROVAL_DATE_TIME ( #61, #176 ) ;
#52 = VECTOR ( 'NONE', #83, 1000.000000000000000 ) ;
#53 = ORIENTED_EDGE ( 'NONE', *, *, #76, .T. ) ;
#54 = PRODUCT_DEFINITION ( 'UNKNOWN', '', #213, #145 ) ;
#55 = FACE_OUTER_BOUND ( 'NONE', #140, .T. ) ;
#56 = CC_DESIGN_PERSON_AND_ORGANIZATION_ASSIGNMENT ( #200, #1, ( #213 ) ) ;
#57 = CARTESIAN_POINT ( 'NONE',  ( 4.750000000000000000, -6.250000000000007100, -12.49999999999999600 ) ) ;
#58 = ADVANCED_FACE ( 'NONE', ( #7 ), #125, .F. ) ;
#59 = DIRECTION ( 'NONE',  ( 0.0000000000000000000, -1.000000000000000000, -5.551115123125782700E-016 ) ) ;
#60 = APPROVAL_DATE_TIME ( #230, #36 ) ;
#61 = DATE_AND_TIME ( #143, #8 ) ;
#62 = ORIENTED_EDGE ( 'NONE', *, *, #191, .F. ) ;
#63 = CC_DESIGN_SECURITY_CLASSIFICATION ( #199, ( #213 ) ) ;
#64 = PLANE ( 'NONE',  #96 ) ;
#65 = LINE ( 'NONE', #107, #12 ) ;
#66 = APPROVAL_STATUS ( 'not_yet_approved' ) ;
#67 = APPLICATION_PROTOCOL_DEFINITION ( 'international standard', 'config_control_design', 1994, #177 ) ;
#68 = PLANE ( 'NONE',  #108 ) ;
#69 = CARTESIAN_POINT ( 'NONE',  ( 4.750000000000000000, -6.250000000000007100, 12.49999999999999600 ) ) ;
#70 = EDGE_CURVE ( 'NONE', #210, #73, #3, .T. ) ;
#71 = PRODUCT_DEFINITION_SHAPE ( 'NONE', 'NONE',  #54 ) ;
#72 = PERSON_AND_ORGANIZATION ( #99, #185 ) ;
#73 = VERTEX_POINT ( 'NONE', #205 ) ;
#74 = ADVANCED_FACE ( 'NONE', ( #193 ), #221, .F. ) ;
#75 = DIRECTION ( 'NONE',  ( -0.0000000000000000000, -1.000000000000000000, -1.387778780781445200E-016 ) ) ;
#76 = EDGE_CURVE ( 'NONE', #95, #210, #231, .T. ) ;
#77 = LOCAL_TIME ( 15, 16, 53.00000000000000000, #127 ) ;
#78 = DIRECTION ( 'NONE',  ( -0.0000000000000000000, -5.551115123125782700E-016, 1.000000000000000000 ) ) ;
#79 = APPROVAL_PERSON_ORGANIZATION ( #186, #36, #179 ) ;
#80 = CARTESIAN_POINT ( 'NONE',  ( 4.750000000000000000, -6.250000000000007100, -12.49999999999999600 ) ) ;
#81 = CARTESIAN_POINT ( 'NONE',  ( 4.750000000000000000, 6.249999999999996400, 12.49999999999999800 ) ) ;
#82 = COORDINATED_UNIVERSAL_TIME_OFFSET ( 5, 0, .BEHIND. ) ;
#83 = DIRECTION ( 'NONE',  ( -1.000000000000000000, -0.0000000000000000000, -0.0000000000000000000 ) ) ;
#84 = CC_DESIGN_PERSON_AND_ORGANIZATION_ASSIGNMENT ( #72, #211, ( #54 ) ) ;
#85 = VECTOR ( 'NONE', #42, 1000.000000000000000 ) ;
#86 =( NAMED_UNIT ( * ) SI_UNIT ( $, .STERADIAN. ) SOLID_ANGLE_UNIT ( ) );
#87 = AXIS2_PLACEMENT_3D ( 'NONE', #49, #116, #47 ) ;
#88 = PERSON_AND_ORGANIZATION ( #99, #185 ) ;
#89 = ORIENTED_EDGE ( 'NONE', *, *, #28, .F. ) ;
#90 = LINE ( 'NONE', #23, #85 ) ;
#91 = EDGE_LOOP ( 'NONE', ( #160, #236, #35, #226 ) ) ;
#92 = EDGE_CURVE ( 'NONE', #227, #201, #233, .T. ) ;
#93 = CARTESIAN_POINT ( 'NONE',  ( -4.750000000000000000, 0.0000000000000000000, 0.0000000000000000000 ) ) ;
#94 = LOCAL_TIME ( 15, 16, 53.00000000000000000, #123 ) ;
#95 = VERTEX_POINT ( 'NONE', #115 ) ;
#96 = AXIS2_PLACEMENT_3D ( 'NONE', #152, #44, #98 ) ;
#97 = CARTESIAN_POINT ( 'NONE',  ( 4.750000000000000000, -6.250000000000007100, 12.49999999999999600 ) ) ;
#98 = DIRECTION ( 'NONE',  ( 0.0000000000000000000, 1.000000000000000000, 1.387778780781445200E-016 ) ) ;
#99 = PERSON ( 'UNSPECIFIED', 'UNSPECIFIED', 'UNSPECIFIED', ('UNSPECIFIED'), ('UNSPECIFIED'), ('UNSPECIFIED') ) ;
#100 = APPLICATION_PROTOCOL_DEFINITION ( 'international standard', 'config_control_design', 1994, #207 ) ;
#101 = CARTESIAN_POINT ( 'NONE',  ( 4.750000000000000000, 6.250000000000010700, -12.50000000000000200 ) ) ;
#102 = DATE_TIME_ROLE ( 'classification_date' ) ;
#103 = FACE_OUTER_BOUND ( 'NONE', #131, .T. ) ;
#104 = ORIENTED_EDGE ( 'NONE', *, *, #122, .T. ) ;
#105 = ORIENTED_EDGE ( 'NONE', *, *, #149, .F. ) ;
#106 = AXIS2_PLACEMENT_3D ( 'NONE', #81, #59, #190 ) ;
#107 = CARTESIAN_POINT ( 'NONE',  ( -4.750000000000000000, -6.250000000000007100, 12.49999999999999600 ) ) ;
#108 = AXIS2_PLACEMENT_3D ( 'NONE', #195, #206, #174 ) ;
#109 = DIRECTION ( 'NONE',  ( 0.0000000000000000000, -1.000000000000000000, 4.163336342344331100E-016 ) ) ;
#110 = VECTOR ( 'NONE', #138, 1000.000000000000000 ) ;
#111 = VERTEX_POINT ( 'NONE', #172 ) ;
#112 = EDGE_CURVE ( 'NONE', #40, #111, #228, .T. ) ;
#113 = DIRECTION ( 'NONE',  ( -1.000000000000000000, 0.0000000000000000000, 0.0000000000000000000 ) ) ;
#114 = DIRECTION ( 'NONE',  ( -1.000000000000000000, -0.0000000000000000000, -0.0000000000000000000 ) ) ;
#115 = CARTESIAN_POINT ( 'NONE',  ( 4.750000000000000000, 6.249999999999996400, 12.49999999999999800 ) ) ;
#116 = DIRECTION ( 'NONE',  ( 0.0000000000000000000, 0.0000000000000000000, 1.000000000000000000 ) ) ;
#117 = CARTESIAN_POINT ( 'NONE',  ( -4.750000000000000000, 6.250000000000010700, -12.50000000000000200 ) ) ;
#118 = CALENDAR_DATE ( 2018, 12, 3 ) ;
#119 =( LENGTH_UNIT ( ) NAMED_UNIT ( * ) SI_UNIT ( .MILLI., .METRE. ) );
#120 = CC_DESIGN_APPROVAL ( #36, ( #199 ) ) ;
#121 = ORIENTED_EDGE ( 'NONE', *, *, #70, .T. ) ;
#122 = EDGE_CURVE ( 'NONE', #111, #95, #30, .T. ) ;
#123 = COORDINATED_UNIVERSAL_TIME_OFFSET ( 5, 0, .BEHIND. ) ;
#124 = EDGE_LOOP ( 'NONE', ( #32, #144, #214, #37 ) ) ;
#125 = PLANE ( 'NONE',  #45 ) ;
#126 = ADVANCED_FACE ( 'NONE', ( #103 ), #20, .T. ) ;
#127 = COORDINATED_UNIVERSAL_TIME_OFFSET ( 5, 0, .BEHIND. ) ;
#128 = VECTOR ( 'NONE', #153, 1000.000000000000000 ) ;
#129 = ORIENTED_EDGE ( 'NONE', *, *, #184, .F. ) ;
#130 = FACE_OUTER_BOUND ( 'NONE', #219, .T. ) ;
#131 = EDGE_LOOP ( 'NONE', ( #89, #62, #181, #105 ) ) ;
#132 = CC_DESIGN_APPROVAL ( #176, ( #213 ) ) ;
#133 = PERSON_AND_ORGANIZATION_ROLE ( 'classification_officer' ) ;
#134 =( NAMED_UNIT ( * ) PLANE_ANGLE_UNIT ( ) SI_UNIT ( $, .RADIAN. ) );
#135 = CALENDAR_DATE ( 2018, 12, 3 ) ;
#136 = VECTOR ( 'NONE', #148, 1000.000000000000000 ) ;
#137 = ORIENTED_EDGE ( 'NONE', *, *, #146, .T. ) ;
#138 = DIRECTION ( 'NONE',  ( -0.0000000000000000000, -5.551115123125782700E-016, 1.000000000000000000 ) ) ;
#139 = APPROVAL_ROLE ( '' ) ;
#140 = EDGE_LOOP ( 'NONE', ( #10, #166, #27, #137 ) ) ;
#141 = APPROVAL ( #159, 'UNSPECIFIED' ) ;
#142 = LINE ( 'NONE', #101, #182 ) ;
#143 = CALENDAR_DATE ( 2018, 12, 3 ) ;
#144 = ORIENTED_EDGE ( 'NONE', *, *, #146, .F. ) ;
#145 = DESIGN_CONTEXT ( 'detailed design', #207, 'design' ) ;
#146 = EDGE_CURVE ( 'NONE', #95, #18, #202, .T. ) ;
#147 = CC_DESIGN_APPROVAL ( #141, ( #54 ) ) ;
#148 = DIRECTION ( 'NONE',  ( 0.0000000000000000000, 1.000000000000000000, -4.163336342344331100E-016 ) ) ;
#149 = EDGE_CURVE ( 'NONE', #73, #227, #90, .T. ) ;
#150 = LOCAL_TIME ( 15, 16, 53.00000000000000000, #13 ) ;
#151 = CARTESIAN_POINT ( 'NONE',  ( 4.750000000000000000, -6.250000000000007100, -12.49999999999999600 ) ) ;
#152 = CARTESIAN_POINT ( 'NONE',  ( 4.750000000000000000, -6.250000000000007100, 12.49999999999999600 ) ) ;
#153 = DIRECTION ( 'NONE',  ( 0.0000000000000000000, 1.000000000000000000, -4.163336342344331100E-016 ) ) ;
#154 = LINE ( 'NONE', #69, #203 ) ;
#155 = VECTOR ( 'NONE', #114, 1000.000000000000000 ) ;
#156 = APPROVAL_ROLE ( '' ) ;
#157 = DIRECTION ( 'NONE',  ( -1.000000000000000000, 0.0000000000000000000, 0.0000000000000000000 ) ) ;
#158 = CARTESIAN_POINT ( 'NONE',  ( 4.750000000000000000, 0.0000000000000000000, 0.0000000000000000000 ) ) ;
#159 = APPROVAL_STATUS ( 'not_yet_approved' ) ;
#160 = ORIENTED_EDGE ( 'NONE', *, *, #92, .T. ) ;
#161 = CARTESIAN_POINT ( 'NONE',  ( -4.750000000000000000, 6.249999999999996400, 12.49999999999999800 ) ) ;
#162 = CC_DESIGN_PERSON_AND_ORGANIZATION_ASSIGNMENT ( #235, #133, ( #199 ) ) ;
#163 = PERSON_AND_ORGANIZATION ( #99, #185 ) ;
#164 = CC_DESIGN_DATE_AND_TIME_ASSIGNMENT ( #224, #50, ( #54 ) ) ;
#165 = APPROVAL_PERSON_ORGANIZATION ( #19, #176, #139 ) ;
#166 = ORIENTED_EDGE ( 'NONE', *, *, #70, .F. ) ;
#167 = ADVANCED_FACE ( 'NONE', ( #55 ), #64, .F. ) ;
#168 = CARTESIAN_POINT ( 'NONE',  ( -4.750000000000000000, 6.249999999999996400, 12.49999999999999800 ) ) ;
#169 = LINE ( 'NONE', #80, #17 ) ;
#170 = VECTOR ( 'NONE', #78, 1000.000000000000000 ) ;
#171 = ORIENTED_EDGE ( 'NONE', *, *, #112, .T. ) ;
#172 = CARTESIAN_POINT ( 'NONE',  ( 4.750000000000000000, 6.250000000000010700, -12.50000000000000200 ) ) ;
#173 = EDGE_CURVE ( 'NONE', #111, #201, #142, .T. ) ;
#174 = DIRECTION ( 'NONE',  ( 0.0000000000000000000, -0.0000000000000000000, 1.000000000000000000 ) ) ;
#175 = PERSON_AND_ORGANIZATION ( #99, #185 ) ;
#176 = APPROVAL ( #225, 'UNSPECIFIED' ) ;
#177 = APPLICATION_CONTEXT ( 'configuration controlled 3d designs of mechanical parts and assemblies' ) ;
#178 = EDGE_CURVE ( 'NONE', #210, #40, #154, .T. ) ;
#179 = APPROVAL_ROLE ( '' ) ;
#180 = COORDINATED_UNIVERSAL_TIME_OFFSET ( 5, 0, .BEHIND. ) ;
#181 = ORIENTED_EDGE ( 'NONE', *, *, #92, .F. ) ;
#182 = VECTOR ( 'NONE', #208, 1000.000000000000000 ) ;
#183 = VECTOR ( 'NONE', #223, 1000.000000000000000 ) ;
#184 = EDGE_CURVE ( 'NONE', #40, #227, #169, .T. ) ;
#185 = ORGANIZATION ( 'UNSPECIFIED', 'UNSPECIFIED', '' ) ;
#186 = PERSON_AND_ORGANIZATION ( #99, #185 ) ;
#187 = APPROVAL_PERSON_ORGANIZATION ( #163, #141, #156 ) ;
#188 = EDGE_LOOP ( 'NONE', ( #53, #14, #171, #104 ) ) ;
#189 = CC_DESIGN_PERSON_AND_ORGANIZATION_ASSIGNMENT ( #175, #34, ( #213 ) ) ;
#190 = DIRECTION ( 'NONE',  ( 0.0000000000000000000, 5.551115123125782700E-016, -1.000000000000000000 ) ) ;
#191 = EDGE_CURVE ( 'NONE', #201, #18, #212, .T. ) ;
#192 = CARTESIAN_POINT ( 'NONE',  ( -4.750000000000000000, -6.250000000000007100, -12.49999999999999600 ) ) ;
#193 = FACE_OUTER_BOUND ( 'NONE', #124, .T. ) ;
#194 = CC_DESIGN_PERSON_AND_ORGANIZATION_ASSIGNMENT ( #88, #9, ( #198 ) ) ;
#195 = CARTESIAN_POINT ( 'NONE',  ( 4.750000000000000000, -6.250000000000007100, 12.49999999999999600 ) ) ;
#196 = CARTESIAN_POINT ( 'NONE',  ( -4.750000000000000000, -6.250000000000007100, -12.49999999999999600 ) ) ;
#197 = AXIS2_PLACEMENT_3D ( 'NONE', #158, #157, #4 ) ;
#198 = PRODUCT ( 'Web Model 43215_43218', 'Web Model 43215_43218', '', ( #48 ) ) ;
#199 = SECURITY_CLASSIFICATION ( '', '', #33 ) ;
#200 = PERSON_AND_ORGANIZATION ( #99, #185 ) ;
#201 = VERTEX_POINT ( 'NONE', #117 ) ;
#202 = LINE ( 'NONE', #22, #155 ) ;
#203 = VECTOR ( 'NONE', #5, 1000.000000000000000 ) ;
#204 = CARTESIAN_POINT ( 'NONE',  ( 4.750000000000000000, 6.249999999999996400, 12.49999999999999800 ) ) ;
#205 = CARTESIAN_POINT ( 'NONE',  ( -4.750000000000000000, -6.250000000000007100, 12.49999999999999600 ) ) ;
#206 = DIRECTION ( 'NONE',  ( -0.0000000000000000000, 1.000000000000000000, 0.0000000000000000000 ) ) ;
#207 = APPLICATION_CONTEXT ( 'configuration controlled 3d designs of mechanical parts and assemblies' ) ;
#208 = DIRECTION ( 'NONE',  ( -1.000000000000000000, -0.0000000000000000000, -0.0000000000000000000 ) ) ;
#209 = SHAPE_DEFINITION_REPRESENTATION ( #71, #25 ) ;
#210 = VERTEX_POINT ( 'NONE', #6 ) ;
#211 = PERSON_AND_ORGANIZATION_ROLE ( 'creator' ) ;
#212 = LINE ( 'NONE', #161, #110 ) ;
#213 = PRODUCT_DEFINITION_FORMATION_WITH_SPECIFIED_SOURCE ( 'ANY', '', #198, .NOT_KNOWN. ) ;
#214 = ORIENTED_EDGE ( 'NONE', *, *, #122, .F. ) ;
#215 = ADVANCED_FACE ( 'NONE', ( #26 ), #46, .F. ) ;
#216 = DIRECTION ( 'NONE',  ( -0.0000000000000000000, 4.163336342344331100E-016, 1.000000000000000000 ) ) ;
#217 = ADVANCED_FACE ( 'NONE', ( #130 ), #68, .F. ) ;
#218 = UNCERTAINTY_MEASURE_WITH_UNIT (LENGTH_MEASURE( 1.000000000000000100E-005 ), #119, 'distance_accuracy_value', 'NONE');
#219 = EDGE_LOOP ( 'NONE', ( #41, #129, #43, #121 ) ) ;
#220 = CC_DESIGN_DATE_AND_TIME_ASSIGNMENT ( #232, #102, ( #199 ) ) ;
#221 = PLANE ( 'NONE',  #106 ) ;
#222 = APPROVAL_DATE_TIME ( #39, #141 ) ;
#223 = DIRECTION ( 'NONE',  ( -0.0000000000000000000, -1.000000000000000000, -1.387778780781445200E-016 ) ) ;
#224 = DATE_AND_TIME ( #2, #11 ) ;
#225 = APPROVAL_STATUS ( 'not_yet_approved' ) ;
#226 = ORIENTED_EDGE ( 'NONE', *, *, #184, .T. ) ;
#227 = VERTEX_POINT ( 'NONE', #196 ) ;
#228 = LINE ( 'NONE', #151, #136 ) ;
#229 = PRODUCT_RELATED_PRODUCT_CATEGORY ( 'detail', '', ( #198 ) ) ;
#230 = DATE_AND_TIME ( #31, #150 ) ;
#231 = LINE ( 'NONE', #24, #183 ) ;
#232 = DATE_AND_TIME ( #118, #94 ) ;
#233 = LINE ( 'NONE', #192, #128 ) ;
#234 = DIRECTION ( 'NONE',  ( 0.0000000000000000000, 0.0000000000000000000, 1.000000000000000000 ) ) ;
#235 = PERSON_AND_ORGANIZATION ( #99, #185 ) ;
#236 = ORIENTED_EDGE ( 'NONE', *, *, #173, .F. ) ;
#237 = DIRECTION ( 'NONE',  ( -1.000000000000000000, -0.0000000000000000000, -0.0000000000000000000 ) ) ;
ENDSEC;
END-ISO-10303-21;
