ISO-10303-21;
HEADER;
FILE_DESCRIPTION (( 'STEP AP214' ),
    '1' );
FILE_NAME ('4585-E0W.STEP',
    '2009-12-21T17:11:35',
    ( ' ' ),
    ( ' ' ),
    'SwSTEP 2.0',
    'SolidWorks 2009',
    '' );
FILE_SCHEMA (( 'AUTOMOTIVE_DESIGN' ));
ENDSEC;

DATA;
#1 = VERTEX_POINT ( 'NONE', #75 ) ;
#2 = DIRECTION ( 'NONE',  ( -0.0000000000000000000, -0.0000000000000000000, 1.000000000000000000 ) ) ;
#3 = CARTESIAN_POINT ( 'NONE',  ( 0.0000000000000000000, 0.0000000000000000000, -1.629999999999999400 ) ) ;
#4 = AXIS2_PLACEMENT_3D ( 'NONE', #3, #2, #17 ) ;
#5 = VERTEX_POINT ( 'NONE', #59 ) ;
#6 =( NAMED_UNIT ( * ) SI_UNIT ( $, .STERADIAN. ) SOLID_ANGLE_UNIT ( ) );
#7 = ORIENTED_EDGE ( 'NONE', *, *, #18, .F. ) ;
#8 = VERTEX_POINT ( 'NONE', #69 ) ;
#9 = MANIFOLD_SOLID_BREP ( 'NONE', #43 ) ;
#10 = EDGE_CURVE ( 'NONE', #1, #5, #70, .T. ) ;
#11 = ORIENTED_EDGE ( 'NONE', *, *, #10, .T. ) ;
#12 = ORIENTED_EDGE ( 'NONE', *, *, #56, .F. ) ;
#13 = UNCERTAINTY_MEASURE_WITH_UNIT (LENGTH_MEASURE( 1.000000000000000100E-005 ), #122, 'distance_accuracy_value', 'NONE');
#14 = EDGE_LOOP ( 'NONE', ( #35, #55 ) ) ;
#15 = ADVANCED_FACE ( 'NONE', ( #134 ), #127, .F. ) ;
#16 =( NAMED_UNIT ( * ) PLANE_ANGLE_UNIT ( ) SI_UNIT ( $, .RADIAN. ) );
#17 = DIRECTION ( 'NONE',  ( 1.000000000000000000, 0.0000000000000000000, 0.0000000000000000000 ) ) ;
#18 = EDGE_CURVE ( 'NONE', #1, #47, #148, .T. ) ;
#19 = ORIENTED_EDGE ( 'NONE', *, *, #22, .T. ) ;
#20 = ORIENTED_EDGE ( 'NONE', *, *, #37, .T. ) ;
#21 = ORIENTED_EDGE ( 'NONE', *, *, #22, .F. ) ;
#22 = EDGE_CURVE ( 'NONE', #46, #23, #138, .T. ) ;
#23 = VERTEX_POINT ( 'NONE', #146 ) ;
#24 = EDGE_CURVE ( 'NONE', #23, #8, #120, .T. ) ;
#25 = ADVANCED_FACE ( 'NONE', ( #121 ), #94, .T. ) ;
#26 = EDGE_CURVE ( 'NONE', #57, #46, #169, .T. ) ;
#27 = ORIENTED_EDGE ( 'NONE', *, *, #26, .T. ) ;
#28 = ORIENTED_EDGE ( 'NONE', *, *, #56, .T. ) ;
#29 = EDGE_LOOP ( 'NONE', ( #32, #38, #41, #53 ) ) ;
#30 = EDGE_LOOP ( 'NONE', ( #11, #28, #40, #42, #7 ) ) ;
#31 = ORIENTED_EDGE ( 'NONE', *, *, #24, .T. ) ;
#32 = ORIENTED_EDGE ( 'NONE', *, *, #24, .F. ) ;
#33 = SURFACE_SIDE_STYLE ('',( #76 ) ) ;
#34 = ADVANCED_FACE ( 'NONE', ( #184 ), #164, .T. ) ;
#35 = ORIENTED_EDGE ( 'NONE', *, *, #10, .F. ) ;
#36 = EDGE_CURVE ( 'NONE', #47, #57, #181, .T. ) ;
#37 = EDGE_CURVE ( 'NONE', #5, #1, #171, .T. ) ;
#38 = ORIENTED_EDGE ( 'NONE', *, *, #39, .T. ) ;
#39 = EDGE_CURVE ( 'NONE', #23, #47, #192, .T. ) ;
#40 = ORIENTED_EDGE ( 'NONE', *, *, #26, .F. ) ;
#41 = ORIENTED_EDGE ( 'NONE', *, *, #36, .T. ) ;
#42 = ORIENTED_EDGE ( 'NONE', *, *, #36, .F. ) ;
#43 = CLOSED_SHELL ( 'NONE', ( #54, #45, #25, #34, #15 ) ) ;
#44 = EDGE_LOOP ( 'NONE', ( #12, #20, #48, #51, #21 ) ) ;
#45 = ADVANCED_FACE ( 'NONE', ( #228 ), #233, .T. ) ;
#46 = VERTEX_POINT ( 'NONE', #202 ) ;
#47 = VERTEX_POINT ( 'NONE', #200 ) ;
#48 = ORIENTED_EDGE ( 'NONE', *, *, #18, .T. ) ;
#49 = ORIENTED_EDGE ( 'NONE', *, *, #50, .F. ) ;
#50 = EDGE_CURVE ( 'NONE', #57, #8, #223, .T. ) ;
#51 = ORIENTED_EDGE ( 'NONE', *, *, #39, .F. ) ;
#52 = EDGE_LOOP ( 'NONE', ( #27, #19, #31, #49 ) ) ;
#53 = ORIENTED_EDGE ( 'NONE', *, *, #50, .T. ) ;
#54 = ADVANCED_FACE ( 'NONE', ( #224 ), #89, .T. ) ;
#55 = ORIENTED_EDGE ( 'NONE', *, *, #37, .F. ) ;
#56 = EDGE_CURVE ( 'NONE', #5, #46, #235, .T. ) ;
#57 = VERTEX_POINT ( 'NONE', #238 ) ;
#58 = MECHANICAL_DESIGN_GEOMETRIC_PRESENTATION_REPRESENTATION (  '', ( #63 ), #71 ) ;
#59 = CARTESIAN_POINT ( 'NONE',  ( -12.69999999999999900, 1.555250069354419100E-015, -1.629999999999999400 ) ) ;
#60 = FILL_AREA_STYLE_COLOUR ( '', #67 ) ;
#61 = PRESENTATION_LAYER_ASSIGNMENT (  '', '', ( #63 ) ) ;
#62 = UNCERTAINTY_MEASURE_WITH_UNIT (LENGTH_MEASURE( 1.000000000000000100E-005 ), #68, 'distance_accuracy_value', 'NONE');
#63 = STYLED_ITEM ( 'NONE', ( #64 ), #9 ) ;
#64 = PRESENTATION_STYLE_ASSIGNMENT (( #72 ) ) ;
#65 = SURFACE_SIDE_STYLE ('',( #66 ) ) ;
#66 = SURFACE_STYLE_FILL_AREA ( #73 ) ;
#67 = COLOUR_RGB ( '',0.7960784313725489700, 0.8235294117647058400, 0.9372549019607843100 ) ;
#68 =( LENGTH_UNIT ( ) NAMED_UNIT ( * ) SI_UNIT ( .MILLI., .METRE. ) );
#69 = CARTESIAN_POINT ( 'NONE',  ( 0.0000000000000000000, 3.942007852954232000E-015, 1.630000000000006600 ) ) ;
#70 = CIRCLE ( 'NONE', #4, 12.69999999999999900 ) ;
#71 =( GEOMETRIC_REPRESENTATION_CONTEXT ( 3 ) GLOBAL_UNCERTAINTY_ASSIGNED_CONTEXT ( ( #62 ) ) GLOBAL_UNIT_ASSIGNED_CONTEXT ( ( #68, #80, #74 ) ) REPRESENTATION_CONTEXT ( 'NONE', 'WORKASPACE' ) );
#72 = SURFACE_STYLE_USAGE ( .BOTH. , #65 ) ;
#73 = FILL_AREA_STYLE ('',( #60 ) ) ;
#74 =( NAMED_UNIT ( * ) SI_UNIT ( $, .STERADIAN. ) SOLID_ANGLE_UNIT ( ) );
#75 = CARTESIAN_POINT ( 'NONE',  ( 12.69999999999999900, 0.0000000000000000000, -1.629999999999999400 ) ) ;
#76 = SURFACE_STYLE_FILL_AREA ( #77 ) ;
#77 = FILL_AREA_STYLE ('',( #78 ) ) ;
#78 = FILL_AREA_STYLE_COLOUR ( '', #79 ) ;
#79 = COLOUR_RGB ( '',0.7960784313725489700, 0.8235294117647058400, 0.9372549019607843100 ) ;
#80 =( NAMED_UNIT ( * ) PLANE_ANGLE_UNIT ( ) SI_UNIT ( $, .RADIAN. ) );
#81 =( NAMED_UNIT ( * ) SI_UNIT ( $, .STERADIAN. ) SOLID_ANGLE_UNIT ( ) );
#82 = STYLED_ITEM ( 'NONE', ( #83 ), #241 ) ;
#83 = PRESENTATION_STYLE_ASSIGNMENT (( #84 ) ) ;
#84 = SURFACE_STYLE_USAGE ( .BOTH. , #33 ) ;
#85 = DIRECTION ( 'NONE',  ( 1.000000000000000000, 0.0000000000000000000, 0.0000000000000000000 ) ) ;
#86 = DIRECTION ( 'NONE',  ( 0.0000000000000000000, 1.000000000000000000, 0.0000000000000000000 ) ) ;
#87 =( GEOMETRIC_REPRESENTATION_CONTEXT ( 3 ) GLOBAL_UNCERTAINTY_ASSIGNED_CONTEXT ( ( #92 ) ) GLOBAL_UNIT_ASSIGNED_CONTEXT ( ( #226, #211, #81 ) ) REPRESENTATION_CONTEXT ( 'NONE', 'WORKASPACE' ) );
#88 = DIRECTION ( 'NONE',  ( -0.0000000000000000000, -0.0000000000000000000, 1.000000000000000000 ) ) ;
#89 = CYLINDRICAL_SURFACE ( 'NONE', #100, 12.69999999999999900 ) ;
#90 = DIRECTION ( 'NONE',  ( 1.000000000000000000, 0.0000000000000000000, 0.0000000000000000000 ) ) ;
#91 = DIRECTION ( 'NONE',  ( -0.0000000000000000000, -0.0000000000000000000, 1.000000000000000000 ) ) ;
#92 = UNCERTAINTY_MEASURE_WITH_UNIT (LENGTH_MEASURE( 1.000000000000000100E-005 ), #226, 'distance_accuracy_value', 'NONE');
#93 = AXIS2_PLACEMENT_3D ( 'NONE', #95, #99, #86 ) ;
#94 = SPHERICAL_SURFACE ( 'NONE', #93, 64.37999999999999500 ) ;
#95 = CARTESIAN_POINT ( 'NONE',  ( 0.0000000000000000000, 0.0000000000000000000, -62.74999999999998600 ) ) ;
#96 = DIRECTION ( 'NONE',  ( -0.0000000000000000000, -0.0000000000000000000, 1.000000000000000000 ) ) ;
#97 = CARTESIAN_POINT ( 'NONE',  ( 0.0000000000000000000, 0.0000000000000000000, 4.308132045400366600 ) ) ;
#98 =( GEOMETRIC_REPRESENTATION_CONTEXT ( 3 ) GLOBAL_UNCERTAINTY_ASSIGNED_CONTEXT ( ( #13 ) ) GLOBAL_UNIT_ASSIGNED_CONTEXT ( ( #122, #16, #6 ) ) REPRESENTATION_CONTEXT ( 'NONE', 'WORKASPACE' ) );
#99 = DIRECTION ( 'NONE',  ( -1.000000000000000000, 0.0000000000000000000, 0.0000000000000000000 ) ) ;
#100 = AXIS2_PLACEMENT_3D ( 'NONE', #97, #96, #103 ) ;
#101 =( LENGTH_UNIT ( ) NAMED_UNIT ( * ) SI_UNIT ( .MILLI., .METRE. ) );
#102 = UNCERTAINTY_MEASURE_WITH_UNIT (LENGTH_MEASURE( 1.000000000000000100E-005 ), #101, 'distance_accuracy_value', 'NONE');
#103 = DIRECTION ( 'NONE',  ( 1.000000000000000000, 0.0000000000000000000, 0.0000000000000000000 ) ) ;
#104 = PRESENTATION_LAYER_ASSIGNMENT (  '', '', ( #82 ) ) ;
#105 =( NAMED_UNIT ( * ) SI_UNIT ( $, .STERADIAN. ) SOLID_ANGLE_UNIT ( ) );
#106 = MECHANICAL_DESIGN_GEOMETRIC_PRESENTATION_REPRESENTATION (  '', ( #82 ), #245 ) ;
#107 =( NAMED_UNIT ( * ) PLANE_ANGLE_UNIT ( ) SI_UNIT ( $, .RADIAN. ) );
#108 = FILL_AREA_STYLE ('',( #112 ) ) ;
#109 = VECTOR ( 'NONE', #123, 1000.000000000000000 ) ;
#110 = CARTESIAN_POINT ( 'NONE',  ( 12.69999999999999900, 0.0000000000000000000, 4.308132045400366600 ) ) ;
#111 = UNCERTAINTY_MEASURE_WITH_UNIT (LENGTH_MEASURE( 1.000000000000000100E-005 ), #143, 'distance_accuracy_value', 'NONE');
#112 = FILL_AREA_STYLE_COLOUR ( '', #115 ) ;
#113 = STYLED_ITEM ( 'NONE', ( #116 ), #15 ) ;
#114 =( NAMED_UNIT ( * ) PLANE_ANGLE_UNIT ( ) SI_UNIT ( $, .RADIAN. ) );
#115 = COLOUR_RGB ( '',0.9568627450980391500, 0.9490196078431372100, 0.9607843137254902200 ) ;
#116 = PRESENTATION_STYLE_ASSIGNMENT (( #150 ) ) ;
#117 = SURFACE_SIDE_STYLE ('',( #147 ) ) ;
#118 = DIRECTION ( 'NONE',  ( 1.000000000000000000, 0.0000000000000000000, 0.0000000000000000000 ) ) ;
#119 = DIRECTION ( 'NONE',  ( 0.0000000000000000000, -0.0000000000000000000, 1.000000000000000000 ) ) ;
#120 = CIRCLE ( 'NONE', #126, 64.37999999999999500 ) ;
#121 = FACE_OUTER_BOUND ( 'NONE', #29, .T. ) ;
#122 =( LENGTH_UNIT ( ) NAMED_UNIT ( * ) SI_UNIT ( .MILLI., .METRE. ) );
#123 = DIRECTION ( 'NONE',  ( -0.0000000000000000000, -0.0000000000000000000, 1.000000000000000000 ) ) ;
#124 = DIRECTION ( 'NONE',  ( -1.000000000000000000, 1.224606353822377300E-016, 0.0000000000000000000 ) ) ;
#125 = CARTESIAN_POINT ( 'NONE',  ( 0.0000000000000000000, 0.0000000000000000000, -62.74999999999998600 ) ) ;
#126 = AXIS2_PLACEMENT_3D ( 'NONE', #125, #124, #133 ) ;
#127 = PLANE ( 'NONE',  #153 ) ;
#128 = MECHANICAL_DESIGN_GEOMETRIC_PRESENTATION_REPRESENTATION (  '', ( #113 ), #151 ) ;
#129 = SURFACE_STYLE_FILL_AREA ( #130 ) ;
#130 = FILL_AREA_STYLE ('',( #132 ) ) ;
#131 = COLOUR_RGB ( '',0.9568627450980391500, 0.9490196078431372100, 0.9607843137254902200 ) ;
#132 = FILL_AREA_STYLE_COLOUR ( '', #131 ) ;
#133 = DIRECTION ( 'NONE',  ( -1.224606353822377300E-016, -1.000000000000000000, 0.0000000000000000000 ) ) ;
#134 = FACE_OUTER_BOUND ( 'NONE', #14, .T. ) ;
#135 = MECHANICAL_DESIGN_GEOMETRIC_PRESENTATION_REPRESENTATION (  '', ( #139 ), #98 ) ;
#136 = PRESENTATION_LAYER_ASSIGNMENT (  '', '', ( #139 ) ) ;
#137 = AXIS2_PLACEMENT_3D ( 'NONE', #145, #155, #154 ) ;
#138 = CIRCLE ( 'NONE', #137, 12.69999999999999900 ) ;
#139 = STYLED_ITEM ( 'NONE', ( #140 ), #25 ) ;
#140 = PRESENTATION_STYLE_ASSIGNMENT (( #141 ) ) ;
#141 = SURFACE_STYLE_USAGE ( .BOTH. , #142 ) ;
#142 = SURFACE_SIDE_STYLE ('',( #129 ) ) ;
#143 =( LENGTH_UNIT ( ) NAMED_UNIT ( * ) SI_UNIT ( .MILLI., .METRE. ) );
#144 = PRESENTATION_LAYER_ASSIGNMENT (  '', '', ( #113 ) ) ;
#145 = CARTESIAN_POINT ( 'NONE',  ( 0.0000000000000000000, 0.0000000000000000000, 0.3649300878960084500 ) ) ;
#146 = CARTESIAN_POINT ( 'NONE',  ( -1.555250069354418500E-015, -12.69999999999999400, 0.3649300878960088900 ) ) ;
#147 = SURFACE_STYLE_FILL_AREA ( #108 ) ;
#148 = LINE ( 'NONE', #110, #109 ) ;
#149 =( NAMED_UNIT ( * ) SI_UNIT ( $, .STERADIAN. ) SOLID_ANGLE_UNIT ( ) );
#150 = SURFACE_STYLE_USAGE ( .BOTH. , #117 ) ;
#151 =( GEOMETRIC_REPRESENTATION_CONTEXT ( 3 ) GLOBAL_UNCERTAINTY_ASSIGNED_CONTEXT ( ( #111 ) ) GLOBAL_UNIT_ASSIGNED_CONTEXT ( ( #143, #114, #149 ) ) REPRESENTATION_CONTEXT ( 'NONE', 'WORKASPACE' ) );
#152 = CARTESIAN_POINT ( 'NONE',  ( 0.0000000000000000000, 5.988522847830557000E-016, -1.629999999999999900 ) ) ;
#153 = AXIS2_PLACEMENT_3D ( 'NONE', #152, #119, #118 ) ;
#154 = DIRECTION ( 'NONE',  ( 1.000000000000000000, 0.0000000000000000000, 0.0000000000000000000 ) ) ;
#155 = DIRECTION ( 'NONE',  ( -0.0000000000000000000, -0.0000000000000000000, 1.000000000000000000 ) ) ;
#156 =( NAMED_UNIT ( * ) SI_UNIT ( $, .STERADIAN. ) SOLID_ANGLE_UNIT ( ) );
#157 =( NAMED_UNIT ( * ) PLANE_ANGLE_UNIT ( ) SI_UNIT ( $, .RADIAN. ) );
#158 = SURFACE_STYLE_FILL_AREA ( #162 ) ;
#159 = STYLED_ITEM ( 'NONE', ( #160 ), #34 ) ;
#160 = PRESENTATION_STYLE_ASSIGNMENT (( #187 ) ) ;
#161 =( GEOMETRIC_REPRESENTATION_CONTEXT ( 3 ) GLOBAL_UNCERTAINTY_ASSIGNED_CONTEXT ( ( #185 ) ) GLOBAL_UNIT_ASSIGNED_CONTEXT ( ( #186, #157, #156 ) ) REPRESENTATION_CONTEXT ( 'NONE', 'WORKASPACE' ) );
#162 = FILL_AREA_STYLE ('',( #173 ) ) ;
#163 = CARTESIAN_POINT ( 'NONE',  ( 0.0000000000000000000, 0.0000000000000000000, 4.308132045400366600 ) ) ;
#164 = CYLINDRICAL_SURFACE ( 'NONE', #175, 12.69999999999999900 ) ;
#165 = DIRECTION ( 'NONE',  ( 1.000000000000000000, 0.0000000000000000000, 0.0000000000000000000 ) ) ;
#166 = DIRECTION ( 'NONE',  ( -0.0000000000000000000, -0.0000000000000000000, 1.000000000000000000 ) ) ;
#167 = CARTESIAN_POINT ( 'NONE',  ( 0.0000000000000000000, 0.0000000000000000000, 0.3649300878960084500 ) ) ;
#168 = AXIS2_PLACEMENT_3D ( 'NONE', #183, #174, #172 ) ;
#169 = CIRCLE ( 'NONE', #168, 12.69999999999999900 ) ;
#170 = AXIS2_PLACEMENT_3D ( 'NONE', #182, #91, #90 ) ;
#171 = CIRCLE ( 'NONE', #170, 12.69999999999999900 ) ;
#172 = DIRECTION ( 'NONE',  ( 1.000000000000000000, 0.0000000000000000000, 0.0000000000000000000 ) ) ;
#173 = FILL_AREA_STYLE_COLOUR ( '', #189 ) ;
#174 = DIRECTION ( 'NONE',  ( -0.0000000000000000000, -0.0000000000000000000, 1.000000000000000000 ) ) ;
#175 = AXIS2_PLACEMENT_3D ( 'NONE', #163, #177, #176 ) ;
#176 = DIRECTION ( 'NONE',  ( 1.000000000000000000, 0.0000000000000000000, 0.0000000000000000000 ) ) ;
#177 = DIRECTION ( 'NONE',  ( -0.0000000000000000000, -0.0000000000000000000, 1.000000000000000000 ) ) ;
#178 = MECHANICAL_DESIGN_GEOMETRIC_PRESENTATION_REPRESENTATION (  '', ( #159 ), #161 ) ;
#179 = PRESENTATION_LAYER_ASSIGNMENT (  '', '', ( #159 ) ) ;
#180 = AXIS2_PLACEMENT_3D ( 'NONE', #167, #166, #165 ) ;
#181 = CIRCLE ( 'NONE', #180, 12.69999999999999900 ) ;
#182 = CARTESIAN_POINT ( 'NONE',  ( 0.0000000000000000000, 0.0000000000000000000, -1.629999999999999400 ) ) ;
#183 = CARTESIAN_POINT ( 'NONE',  ( 0.0000000000000000000, 0.0000000000000000000, 0.3649300878960084500 ) ) ;
#184 = FACE_OUTER_BOUND ( 'NONE', #44, .T. ) ;
#185 = UNCERTAINTY_MEASURE_WITH_UNIT (LENGTH_MEASURE( 1.000000000000000100E-005 ), #186, 'distance_accuracy_value', 'NONE');
#186 =( LENGTH_UNIT ( ) NAMED_UNIT ( * ) SI_UNIT ( .MILLI., .METRE. ) );
#187 = SURFACE_STYLE_USAGE ( .BOTH. , #188 ) ;
#188 = SURFACE_SIDE_STYLE ('',( #158 ) ) ;
#189 = COLOUR_RGB ( '',0.9568627450980391500, 0.9490196078431372100, 0.9607843137254902200 ) ;
#190 = CARTESIAN_POINT ( 'NONE',  ( 0.0000000000000000000, 0.0000000000000000000, 0.3649300878960084500 ) ) ;
#191 = AXIS2_PLACEMENT_3D ( 'NONE', #190, #88, #85 ) ;
#192 = CIRCLE ( 'NONE', #191, 12.69999999999999900 ) ;
#193 = FILL_AREA_STYLE ('',( #194 ) ) ;
#194 = FILL_AREA_STYLE_COLOUR ( '', #195 ) ;
#195 = COLOUR_RGB ( '',0.9568627450980391500, 0.9490196078431372100, 0.9607843137254902200 ) ;
#196 = DIRECTION ( 'NONE',  ( 0.0000000000000000000, 0.0000000000000000000, -1.000000000000000000 ) ) ;
#197 = UNCERTAINTY_MEASURE_WITH_UNIT (LENGTH_MEASURE( 1.000000000000000100E-005 ), #198, 'distance_accuracy_value', 'NONE');
#198 =( LENGTH_UNIT ( ) NAMED_UNIT ( * ) SI_UNIT ( .MILLI., .METRE. ) );
#199 =( NAMED_UNIT ( * ) PLANE_ANGLE_UNIT ( ) SI_UNIT ( $, .RADIAN. ) );
#200 = CARTESIAN_POINT ( 'NONE',  ( 12.69999999999999900, 0.0000000000000000000, 0.3649300878960084500 ) ) ;
#201 = COLOUR_RGB ( '',0.9568627450980391500, 0.9490196078431372100, 0.9607843137254902200 ) ;
#202 = CARTESIAN_POINT ( 'NONE',  ( -12.69999999999999900, 1.555250069354419100E-015, 0.3649300878960084500 ) ) ;
#203 = STYLED_ITEM ( 'NONE', ( #216 ), #45 ) ;
#204 =( NAMED_UNIT ( * ) SI_UNIT ( $, .STERADIAN. ) SOLID_ANGLE_UNIT ( ) );
#205 = PRESENTATION_STYLE_ASSIGNMENT (( #206 ) ) ;
#206 = SURFACE_STYLE_USAGE ( .BOTH. , #207 ) ;
#207 = SURFACE_SIDE_STYLE ('',( #208 ) ) ;
#208 = SURFACE_STYLE_FILL_AREA ( #193 ) ;
#209 =( GEOMETRIC_REPRESENTATION_CONTEXT ( 3 ) GLOBAL_UNCERTAINTY_ASSIGNED_CONTEXT ( ( #197 ) ) GLOBAL_UNIT_ASSIGNED_CONTEXT ( ( #198, #199, #204 ) ) REPRESENTATION_CONTEXT ( 'NONE', 'WORKASPACE' ) );
#210 = MECHANICAL_DESIGN_GEOMETRIC_PRESENTATION_REPRESENTATION (  '', ( #203 ), #209 ) ;
#211 =( NAMED_UNIT ( * ) PLANE_ANGLE_UNIT ( ) SI_UNIT ( $, .RADIAN. ) );
#212 = AXIS2_PLACEMENT_3D ( 'NONE', #221, #220, #196 ) ;
#213 = MECHANICAL_DESIGN_GEOMETRIC_PRESENTATION_REPRESENTATION (  '', ( #215 ), #87 ) ;
#214 = PRESENTATION_LAYER_ASSIGNMENT (  '', '', ( #215 ) ) ;
#215 = STYLED_ITEM ( 'NONE', ( #205 ), #54 ) ;
#216 = PRESENTATION_STYLE_ASSIGNMENT (( #229 ) ) ;
#217 = DIRECTION ( 'NONE',  ( 0.0000000000000000000, 1.000000000000000000, 0.0000000000000000000 ) ) ;
#218 = DIRECTION ( 'NONE',  ( -1.000000000000000000, 0.0000000000000000000, 0.0000000000000000000 ) ) ;
#219 = CARTESIAN_POINT ( 'NONE',  ( 0.0000000000000000000, 0.0000000000000000000, -62.74999999999998600 ) ) ;
#220 = DIRECTION ( 'NONE',  ( 1.000000000000000000, 0.0000000000000000000, 0.0000000000000000000 ) ) ;
#221 = CARTESIAN_POINT ( 'NONE',  ( 0.0000000000000000000, 0.0000000000000000000, -62.74999999999998600 ) ) ;
#222 = FILL_AREA_STYLE ('',( #227 ) ) ;
#223 = CIRCLE ( 'NONE', #212, 64.37999999999998100 ) ;
#224 = FACE_OUTER_BOUND ( 'NONE', #30, .T. ) ;
#225 = SURFACE_STYLE_FILL_AREA ( #222 ) ;
#226 =( LENGTH_UNIT ( ) NAMED_UNIT ( * ) SI_UNIT ( .MILLI., .METRE. ) );
#227 = FILL_AREA_STYLE_COLOUR ( '', #201 ) ;
#228 = FACE_OUTER_BOUND ( 'NONE', #52, .T. ) ;
#229 = SURFACE_STYLE_USAGE ( .BOTH. , #231 ) ;
#230 = PRESENTATION_LAYER_ASSIGNMENT (  '', '', ( #203 ) ) ;
#231 = SURFACE_SIDE_STYLE ('',( #225 ) ) ;
#232 = AXIS2_PLACEMENT_3D ( 'NONE', #219, #218, #217 ) ;
#233 = SPHERICAL_SURFACE ( 'NONE', #232, 64.37999999999999500 ) ;
#234 =( GEOMETRIC_REPRESENTATION_CONTEXT ( 3 ) GLOBAL_UNCERTAINTY_ASSIGNED_CONTEXT ( ( #242 ) ) GLOBAL_UNIT_ASSIGNED_CONTEXT ( ( #240, #236, #243 ) ) REPRESENTATION_CONTEXT ( 'NONE', 'WORKASPACE' ) );
#235 = LINE ( 'NONE', #244, #239 ) ;
#236 =( NAMED_UNIT ( * ) PLANE_ANGLE_UNIT ( ) SI_UNIT ( $, .RADIAN. ) );
#237 = DIRECTION ( 'NONE',  ( -0.0000000000000000000, -0.0000000000000000000, 1.000000000000000000 ) ) ;
#238 = CARTESIAN_POINT ( 'NONE',  ( 0.0000000000000000000, 12.69999999999999400, 0.3649300878960088900 ) ) ;
#239 = VECTOR ( 'NONE', #237, 1000.000000000000000 ) ;
#240 =( LENGTH_UNIT ( ) NAMED_UNIT ( * ) SI_UNIT ( .MILLI., .METRE. ) );
#241 = ADVANCED_BREP_SHAPE_REPRESENTATION ( '4585-E0W', ( #9, #255 ), #234 ) ;
#242 = UNCERTAINTY_MEASURE_WITH_UNIT (LENGTH_MEASURE( 1.000000000000000100E-005 ), #240, 'distance_accuracy_value', 'NONE');
#243 =( NAMED_UNIT ( * ) SI_UNIT ( $, .STERADIAN. ) SOLID_ANGLE_UNIT ( ) );
#244 = CARTESIAN_POINT ( 'NONE',  ( -12.69999999999999900, 1.555250069354419100E-015, 4.308132045400366600 ) ) ;
#245 =( GEOMETRIC_REPRESENTATION_CONTEXT ( 3 ) GLOBAL_UNCERTAINTY_ASSIGNED_CONTEXT ( ( #102 ) ) GLOBAL_UNIT_ASSIGNED_CONTEXT ( ( #101, #107, #105 ) ) REPRESENTATION_CONTEXT ( 'NONE', 'WORKASPACE' ) );
#246 = APPLICATION_CONTEXT ( 'automotive_design' ) ;
#247 = APPLICATION_PROTOCOL_DEFINITION ( 'draft international standard', 'automotive_design', 1998, #246 ) ;
#248 = PRODUCT_CONTEXT ( 'NONE', #246, 'mechanical' ) ;
#249 = PRODUCT ( '4585-E0W', '4585-E0W', '', ( #248 ) ) ;
#250 = PRODUCT_DEFINITION ( 'UNKNOWN', '', #256, #251 ) ;
#251 = PRODUCT_DEFINITION_CONTEXT ( 'detailed design', #257, 'design' ) ;
#252 = APPLICATION_PROTOCOL_DEFINITION ( 'draft international standard', 'automotive_design', 1998, #257 ) ;
#253 = CARTESIAN_POINT ( 'NONE',  ( 0.0000000000000000000, 0.0000000000000000000, 0.0000000000000000000 ) ) ;
#254 = DIRECTION ( 'NONE',  ( 0.0000000000000000000, 0.0000000000000000000, 1.000000000000000000 ) ) ;
#255 = AXIS2_PLACEMENT_3D ( 'NONE', #253, #254, #258 ) ;
#256 = PRODUCT_DEFINITION_FORMATION_WITH_SPECIFIED_SOURCE ( 'ANY', '', #249, .NOT_KNOWN. ) ;
#257 = APPLICATION_CONTEXT ( 'automotive_design' ) ;
#258 = DIRECTION ( 'NONE',  ( 1.000000000000000000, 0.0000000000000000000, 0.0000000000000000000 ) ) ;
#259 = PRODUCT_RELATED_PRODUCT_CATEGORY ( 'part', '', ( #249 ) ) ;
#260 = PRODUCT_DEFINITION_SHAPE ( 'NONE', 'NONE',  #250 ) ;
#261 = SHAPE_DEFINITION_REPRESENTATION ( #260, #241 ) ;
ENDSEC;
END-ISO-10303-21;
