ISO-10303-21;
HEADER;
FILE_DESCRIPTION (( 'STEP AP203' ),
    '1' );
FILE_NAME ('34600_36945.step',
    '2017-08-24T13:16:42',
    ( '' ),
    ( '' ),
    'SwSTEP 2.0',
    'SolidWorks 2016',
    '' );
FILE_SCHEMA (( 'CONFIG_CONTROL_DESIGN' ));
ENDSEC;

DATA;
#1 = ADVANCED_FACE ( 'NONE', ( #142 ), #115, .T. ) ;
#2 = DIRECTION ( 'NONE',  ( -0.0000000000000000000, -0.0000000000000000000, -1.000000000000000000 ) ) ;
#3 = APPROVAL_DATE_TIME ( #72, #146 ) ;
#4 = DIRECTION ( 'NONE',  ( -0.0000000000000000000, -0.0000000000000000000, -1.000000000000000000 ) ) ;
#5 = PLANE ( 'NONE',  #170 ) ;
#6 = PRODUCT_RELATED_PRODUCT_CATEGORY ( 'detail', '', ( #92 ) ) ;
#7 = DIRECTION ( 'NONE',  ( 1.000000000000000000, 0.0000000000000000000, 0.0000000000000000000 ) ) ;
#8 = ORGANIZATION ( 'UNSPECIFIED', 'UNSPECIFIED', '' ) ;
#9 = PERSON_AND_ORGANIZATION ( #17, #8 ) ;
#10 = PERSON_AND_ORGANIZATION ( #17, #8 ) ;
#11 = LOCAL_TIME ( 9, 16, 42.00000000000000000, #134 ) ;
#12 = ORIENTED_EDGE ( 'NONE', *, *, #67, .T. ) ;
#13 = APPROVAL_STATUS ( 'not_yet_approved' ) ;
#14 = DIRECTION ( 'NONE',  ( 0.0000000000000000000, 0.0000000000000000000, 1.000000000000000000 ) ) ;
#15 = VERTEX_POINT ( 'NONE', #160 ) ;
#16 = DATE_TIME_ROLE ( 'creation_date' ) ;
#17 = PERSON ( 'UNSPECIFIED', 'UNSPECIFIED', 'UNSPECIFIED', ('UNSPECIFIED'), ('UNSPECIFIED'), ('UNSPECIFIED') ) ;
#18 = COORDINATED_UNIVERSAL_TIME_OFFSET ( 5, 0, .BEHIND. ) ;
#19 = ORIENTED_EDGE ( 'NONE', *, *, #70, .T. ) ;
#20 = DATE_AND_TIME ( #90, #125 ) ;
#21 = FACE_OUTER_BOUND ( 'NONE', #94, .T. ) ;
#22 = CC_DESIGN_PERSON_AND_ORGANIZATION_ASSIGNMENT ( #173, #150, ( #86 ) ) ;
#23 = APPROVAL_DATE_TIME ( #20, #85 ) ;
#24 = ORIENTED_EDGE ( 'NONE', *, *, #153, .F. ) ;
#25 = CARTESIAN_POINT ( 'NONE',  ( 25.00000000000000000, 3.061616997868383000E-015, 2.000000000000000000 ) ) ;
#26 = DIRECTION ( 'NONE',  ( 0.0000000000000000000, 0.0000000000000000000, 1.000000000000000000 ) ) ;
#27 = APPLICATION_PROTOCOL_DEFINITION ( 'international standard', 'config_control_design', 1994, #139 ) ;
#28 = DIRECTION ( 'NONE',  ( 1.000000000000000000, 0.0000000000000000000, 0.0000000000000000000 ) ) ;
#29 = AXIS2_PLACEMENT_3D ( 'NONE', #137, #2, #77 ) ;
#30 = PERSON_AND_ORGANIZATION_ROLE ( 'design_supplier' ) ;
#31 = CALENDAR_DATE ( 2017, 24, 8 ) ;
#32 = CIRCLE ( 'NONE', #131, 25.00000000000000000 ) ;
#33 = CC_DESIGN_PERSON_AND_ORGANIZATION_ASSIGNMENT ( #45, #147, ( #141 ) ) ;
#34 = APPROVAL_STATUS ( 'not_yet_approved' ) ;
#35 = EDGE_CURVE ( 'NONE', #53, #174, #126, .T. ) ;
#36 = CALENDAR_DATE ( 2017, 24, 8 ) ;
#37 = LINE ( 'NONE', #65, #52 ) ;
#38 = DIRECTION ( 'NONE',  ( 0.0000000000000000000, 0.0000000000000000000, 1.000000000000000000 ) ) ;
#39 = COORDINATED_UNIVERSAL_TIME_OFFSET ( 5, 0, .BEHIND. ) ;
#40 = FACE_OUTER_BOUND ( 'NONE', #100, .T. ) ;
#41 = COORDINATED_UNIVERSAL_TIME_OFFSET ( 5, 0, .BEHIND. ) ;
#42 = FACE_OUTER_BOUND ( 'NONE', #88, .T. ) ;
#43 = ORIENTED_EDGE ( 'NONE', *, *, #67, .F. ) ;
#44 = AXIS2_PLACEMENT_3D ( 'NONE', #66, #149, #7 ) ;
#45 = PERSON_AND_ORGANIZATION ( #17, #8 ) ;
#46 = CIRCLE ( 'NONE', #110, 25.00000000000000000 ) ;
#47 = DIRECTION ( 'NONE',  ( 0.0000000000000000000, 0.0000000000000000000, 1.000000000000000000 ) ) ;
#48 = DIRECTION ( 'NONE',  ( 1.000000000000000000, 0.0000000000000000000, 0.0000000000000000000 ) ) ;
#49 = CARTESIAN_POINT ( 'NONE',  ( 0.0000000000000000000, 0.0000000000000000000, 2.000000000000000000 ) ) ;
#50 = PRODUCT_DEFINITION_FORMATION_WITH_SPECIFIED_SOURCE ( 'ANY', '', #92, .NOT_KNOWN. ) ;
#51 = CARTESIAN_POINT ( 'NONE',  ( 25.00000000000000000, 3.061616997868383000E-015, 0.0000000000000000000 ) ) ;
#52 = VECTOR ( 'NONE', #95, 1000.000000000000000 ) ;
#53 = VERTEX_POINT ( 'NONE', #25 ) ;
#54 = CIRCLE ( 'NONE', #104, 25.00000000000000000 ) ;
#55 =( GEOMETRIC_REPRESENTATION_CONTEXT ( 3 ) GLOBAL_UNCERTAINTY_ASSIGNED_CONTEXT ( ( #82 ) ) GLOBAL_UNIT_ASSIGNED_CONTEXT ( ( #61, #166, #64 ) ) REPRESENTATION_CONTEXT ( 'NONE', 'WORKASPACE' ) );
#56 = APPROVAL_PERSON_ORGANIZATION ( #103, #129, #96 ) ;
#57 = VERTEX_POINT ( 'NONE', #161 ) ;
#58 = VECTOR ( 'NONE', #175, 1000.000000000000000 ) ;
#59 = DIRECTION ( 'NONE',  ( 0.0000000000000000000, 0.0000000000000000000, 1.000000000000000000 ) ) ;
#60 = PERSON_AND_ORGANIZATION_ROLE ( 'creator' ) ;
#61 =( LENGTH_UNIT ( ) NAMED_UNIT ( * ) SI_UNIT ( .MILLI., .METRE. ) );
#62 = CYLINDRICAL_SURFACE ( 'NONE', #29, 25.00000000000000000 ) ;
#63 = ORIENTED_EDGE ( 'NONE', *, *, #153, .T. ) ;
#64 =( NAMED_UNIT ( * ) SI_UNIT ( $, .STERADIAN. ) SOLID_ANGLE_UNIT ( ) );
#65 = CARTESIAN_POINT ( 'NONE',  ( -25.00000000000000000, 0.0000000000000000000, 2.000000000000000000 ) ) ;
#66 = CARTESIAN_POINT ( 'NONE',  ( 0.0000000000000000000, 0.0000000000000000000, 0.0000000000000000000 ) ) ;
#67 = EDGE_CURVE ( 'NONE', #15, #53, #54, .T. ) ;
#68 = COORDINATED_UNIVERSAL_TIME_OFFSET ( 5, 0, .BEHIND. ) ;
#69 = ADVANCED_BREP_SHAPE_REPRESENTATION ( '34600_36945', ( #138, #44 ), #55 ) ;
#70 = EDGE_CURVE ( 'NONE', #57, #174, #32, .T. ) ;
#71 = CC_DESIGN_DATE_AND_TIME_ASSIGNMENT ( #83, #164, ( #141 ) ) ;
#72 = DATE_AND_TIME ( #113, #154 ) ;
#73 = ADVANCED_FACE ( 'NONE', ( #21 ), #114, .T. ) ;
#74 = ORIENTED_EDGE ( 'NONE', *, *, #35, .T. ) ;
#75 = DIRECTION ( 'NONE',  ( 0.0000000000000000000, 0.0000000000000000000, 1.000000000000000000 ) ) ;
#76 = APPROVAL_STATUS ( 'not_yet_approved' ) ;
#77 = DIRECTION ( 'NONE',  ( -1.000000000000000000, 0.0000000000000000000, 0.0000000000000000000 ) ) ;
#78 = PERSON_AND_ORGANIZATION_ROLE ( 'design_owner' ) ;
#79 = EDGE_CURVE ( 'NONE', #53, #15, #84, .T. ) ;
#80 = LOCAL_TIME ( 9, 16, 42.00000000000000000, #18 ) ;
#81 = MECHANICAL_CONTEXT ( 'NONE', #139, 'mechanical' ) ;
#82 = UNCERTAINTY_MEASURE_WITH_UNIT (LENGTH_MEASURE( 1.000000000000000100E-005 ), #61, 'distance_accuracy_value', 'NONE');
#83 = DATE_AND_TIME ( #117, #80 ) ;
#84 = CIRCLE ( 'NONE', #158, 25.00000000000000000 ) ;
#85 = APPROVAL ( #13, 'UNSPECIFIED' ) ;
#86 = PRODUCT_DEFINITION ( 'UNKNOWN', '', #50, #102 ) ;
#87 = PERSON_AND_ORGANIZATION ( #17, #8 ) ;
#88 = EDGE_LOOP ( 'NONE', ( #163, #43, #63, #19 ) ) ;
#89 = PRODUCT_DEFINITION_SHAPE ( 'NONE', 'NONE',  #86 ) ;
#90 = CALENDAR_DATE ( 2017, 24, 8 ) ;
#91 = CLOSED_SHELL ( 'NONE', ( #73, #130, #1, #135 ) ) ;
#92 = PRODUCT ( '34600_36945', '34600_36945', '', ( #81 ) ) ;
#93 = CARTESIAN_POINT ( 'NONE',  ( 0.0000000000000000000, 0.0000000000000000000, 0.0000000000000000000 ) ) ;
#94 = EDGE_LOOP ( 'NONE', ( #118, #74, #169, #24 ) ) ;
#95 = DIRECTION ( 'NONE',  ( -0.0000000000000000000, -0.0000000000000000000, -1.000000000000000000 ) ) ;
#96 = APPROVAL_ROLE ( '' ) ;
#97 = CARTESIAN_POINT ( 'NONE',  ( 0.0000000000000000000, 0.0000000000000000000, 2.000000000000000000 ) ) ;
#98 = CC_DESIGN_PERSON_AND_ORGANIZATION_ASSIGNMENT ( #162, #60, ( #50 ) ) ;
#99 = DATE_AND_TIME ( #36, #11 ) ;
#100 = EDGE_LOOP ( 'NONE', ( #172, #101 ) ) ;
#101 = ORIENTED_EDGE ( 'NONE', *, *, #122, .F. ) ;
#102 = DESIGN_CONTEXT ( 'detailed design', #136, 'design' ) ;
#103 = PERSON_AND_ORGANIZATION ( #17, #8 ) ;
#104 = AXIS2_PLACEMENT_3D ( 'NONE', #97, #38, #48 ) ;
#105 = CARTESIAN_POINT ( 'NONE',  ( 0.0000000000000000000, 0.0000000000000000000, 0.0000000000000000000 ) ) ;
#106 = DIRECTION ( 'NONE',  ( 1.000000000000000000, 0.0000000000000000000, -0.0000000000000000000 ) ) ;
#107 = DIRECTION ( 'NONE',  ( 1.000000000000000000, 0.0000000000000000000, 0.0000000000000000000 ) ) ;
#108 = APPROVAL_ROLE ( '' ) ;
#109 = CC_DESIGN_APPROVAL ( #129, ( #86 ) ) ;
#110 = AXIS2_PLACEMENT_3D ( 'NONE', #140, #14, #28 ) ;
#111 = APPROVAL_ROLE ( '' ) ;
#112 = CC_DESIGN_PERSON_AND_ORGANIZATION_ASSIGNMENT ( #87, #30, ( #50 ) ) ;
#113 = CALENDAR_DATE ( 2017, 24, 8 ) ;
#114 = CYLINDRICAL_SURFACE ( 'NONE', #144, 25.00000000000000000 ) ;
#115 = PLANE ( 'NONE',  #120 ) ;
#116 = CC_DESIGN_PERSON_AND_ORGANIZATION_ASSIGNMENT ( #9, #78, ( #92 ) ) ;
#117 = CALENDAR_DATE ( 2017, 24, 8 ) ;
#118 = ORIENTED_EDGE ( 'NONE', *, *, #79, .F. ) ;
#119 = CARTESIAN_POINT ( 'NONE',  ( 0.0000000000000000000, 0.0000000000000000000, 2.000000000000000000 ) ) ;
#120 = AXIS2_PLACEMENT_3D ( 'NONE', #119, #59, #133 ) ;
#121 = APPLICATION_PROTOCOL_DEFINITION ( 'international standard', 'config_control_design', 1994, #136 ) ;
#122 = EDGE_CURVE ( 'NONE', #174, #57, #46, .T. ) ;
#123 = DIRECTION ( 'NONE',  ( 1.000000000000000000, 0.0000000000000000000, 0.0000000000000000000 ) ) ;
#124 = SECURITY_CLASSIFICATION_LEVEL ( 'unclassified' ) ;
#125 = LOCAL_TIME ( 9, 16, 42.00000000000000000, #39 ) ;
#126 = LINE ( 'NONE', #159, #58 ) ;
#127 = CC_DESIGN_APPROVAL ( #85, ( #50 ) ) ;
#128 = DATE_AND_TIME ( #31, #171 ) ;
#129 = APPROVAL ( #76, 'UNSPECIFIED' ) ;
#130 = ADVANCED_FACE ( 'NONE', ( #42 ), #62, .T. ) ;
#131 = AXIS2_PLACEMENT_3D ( 'NONE', #105, #75, #123 ) ;
#132 = EDGE_LOOP ( 'NONE', ( #12, #155 ) ) ;
#133 = DIRECTION ( 'NONE',  ( 1.000000000000000000, 0.0000000000000000000, -0.0000000000000000000 ) ) ;
#134 = COORDINATED_UNIVERSAL_TIME_OFFSET ( 5, 0, .BEHIND. ) ;
#135 = ADVANCED_FACE ( 'NONE', ( #40 ), #5, .F. ) ;
#136 = APPLICATION_CONTEXT ( 'configuration controlled 3d designs of mechanical parts and assemblies' ) ;
#137 = CARTESIAN_POINT ( 'NONE',  ( 0.0000000000000000000, 0.0000000000000000000, 2.000000000000000000 ) ) ;
#138 = MANIFOLD_SOLID_BREP ( 'Boss-Extrude1', #91 ) ;
#139 = APPLICATION_CONTEXT ( 'configuration controlled 3d designs of mechanical parts and assemblies' ) ;
#140 = CARTESIAN_POINT ( 'NONE',  ( 0.0000000000000000000, 0.0000000000000000000, 0.0000000000000000000 ) ) ;
#141 = SECURITY_CLASSIFICATION ( '', '', #124 ) ;
#142 = FACE_OUTER_BOUND ( 'NONE', #132, .T. ) ;
#143 = CC_DESIGN_DATE_AND_TIME_ASSIGNMENT ( #99, #16, ( #86 ) ) ;
#144 = AXIS2_PLACEMENT_3D ( 'NONE', #49, #4, #165 ) ;
#145 = SHAPE_DEFINITION_REPRESENTATION ( #89, #69 ) ;
#146 = APPROVAL ( #34, 'UNSPECIFIED' ) ;
#147 = PERSON_AND_ORGANIZATION_ROLE ( 'classification_officer' ) ;
#148 = PERSON_AND_ORGANIZATION ( #17, #8 ) ;
#149 = DIRECTION ( 'NONE',  ( 0.0000000000000000000, 0.0000000000000000000, 1.000000000000000000 ) ) ;
#150 = PERSON_AND_ORGANIZATION_ROLE ( 'creator' ) ;
#151 = CC_DESIGN_SECURITY_CLASSIFICATION ( #141, ( #50 ) ) ;
#152 = APPROVAL_PERSON_ORGANIZATION ( #10, #146, #111 ) ;
#153 = EDGE_CURVE ( 'NONE', #15, #57, #37, .T. ) ;
#154 = LOCAL_TIME ( 9, 16, 42.00000000000000000, #41 ) ;
#155 = ORIENTED_EDGE ( 'NONE', *, *, #79, .T. ) ;
#156 = CC_DESIGN_APPROVAL ( #146, ( #141 ) ) ;
#157 = APPROVAL_DATE_TIME ( #128, #129 ) ;
#158 = AXIS2_PLACEMENT_3D ( 'NONE', #167, #26, #107 ) ;
#159 = CARTESIAN_POINT ( 'NONE',  ( 25.00000000000000000, 3.061616997868383000E-015, 2.000000000000000000 ) ) ;
#160 = CARTESIAN_POINT ( 'NONE',  ( -25.00000000000000000, 0.0000000000000000000, 2.000000000000000000 ) ) ;
#161 = CARTESIAN_POINT ( 'NONE',  ( -25.00000000000000000, 0.0000000000000000000, 0.0000000000000000000 ) ) ;
#162 = PERSON_AND_ORGANIZATION ( #17, #8 ) ;
#163 = ORIENTED_EDGE ( 'NONE', *, *, #35, .F. ) ;
#164 = DATE_TIME_ROLE ( 'classification_date' ) ;
#165 = DIRECTION ( 'NONE',  ( -1.000000000000000000, 0.0000000000000000000, 0.0000000000000000000 ) ) ;
#166 =( NAMED_UNIT ( * ) PLANE_ANGLE_UNIT ( ) SI_UNIT ( $, .RADIAN. ) );
#167 = CARTESIAN_POINT ( 'NONE',  ( 0.0000000000000000000, 0.0000000000000000000, 2.000000000000000000 ) ) ;
#168 = APPROVAL_PERSON_ORGANIZATION ( #148, #85, #108 ) ;
#169 = ORIENTED_EDGE ( 'NONE', *, *, #122, .T. ) ;
#170 = AXIS2_PLACEMENT_3D ( 'NONE', #93, #47, #106 ) ;
#171 = LOCAL_TIME ( 9, 16, 42.00000000000000000, #68 ) ;
#172 = ORIENTED_EDGE ( 'NONE', *, *, #70, .F. ) ;
#173 = PERSON_AND_ORGANIZATION ( #17, #8 ) ;
#174 = VERTEX_POINT ( 'NONE', #51 ) ;
#175 = DIRECTION ( 'NONE',  ( -0.0000000000000000000, -0.0000000000000000000, -1.000000000000000000 ) ) ;
ENDSEC;
END-ISO-10303-21;
