ISO-10303-21;
HEADER;
FILE_DESCRIPTION (( 'STEP AP203' ),
    '1' );
FILE_NAME ('Web Model 38912_39012.step',
    '2018-10-18T19:50:32',
    ( '' ),
    ( '' ),
    'SwSTEP 2.0',
    'SolidWorks 2016',
    '' );
FILE_SCHEMA (( 'CONFIG_CONTROL_DESIGN' ));
ENDSEC;

DATA;
#1 = CARTESIAN_POINT ( 'NONE',  ( -19.05000000000000100, 0.0000000000000000000, 3.174999999999999800 ) ) ;
#2 = EDGE_CURVE ( 'NONE', #141, #93, #156, .T. ) ;
#3 = DIRECTION ( 'NONE',  ( 0.0000000000000000000, 0.0000000000000000000, 1.000000000000000000 ) ) ;
#4 =( NAMED_UNIT ( * ) PLANE_ANGLE_UNIT ( ) SI_UNIT ( $, .RADIAN. ) );
#5 = MECHANICAL_CONTEXT ( 'NONE', #85, 'mechanical' ) ;
#6 = CALENDAR_DATE ( 2018, 18, 10 ) ;
#7 = CARTESIAN_POINT ( 'NONE',  ( 0.0000000000000000000, 0.0000000000000000000, 3.174999999999999800 ) ) ;
#8 = PERSON_AND_ORGANIZATION_ROLE ( 'design_owner' ) ;
#9 = FACE_OUTER_BOUND ( 'NONE', #133, .T. ) ;
#10 = PERSON_AND_ORGANIZATION ( #126, #14 ) ;
#11 = APPROVAL_DATE_TIME ( #114, #104 ) ;
#12 = DATE_AND_TIME ( #6, #36 ) ;
#13 = AXIS2_PLACEMENT_3D ( 'NONE', #124, #95, #125 ) ;
#14 = ORGANIZATION ( 'UNSPECIFIED', 'UNSPECIFIED', '' ) ;
#15 = PRODUCT_DEFINITION_SHAPE ( 'NONE', 'NONE',  #120 ) ;
#16 = DIRECTION ( 'NONE',  ( -0.0000000000000000000, -0.0000000000000000000, -1.000000000000000000 ) ) ;
#17 = VECTOR ( 'NONE', #72, 1000.000000000000000 ) ;
#18 = CARTESIAN_POINT ( 'NONE',  ( -19.05000000000000100, 0.0000000000000000000, 3.174999999999999800 ) ) ;
#19 = APPROVAL_STATUS ( 'not_yet_approved' ) ;
#20 = CC_DESIGN_PERSON_AND_ORGANIZATION_ASSIGNMENT ( #159, #8, ( #113 ) ) ;
#21 = EDGE_LOOP ( 'NONE', ( #130, #164 ) ) ;
#22 = APPROVAL_DATE_TIME ( #84, #162 ) ;
#23 = ORIENTED_EDGE ( 'NONE', *, *, #111, .F. ) ;
#24 = EDGE_LOOP ( 'NONE', ( #92, #61 ) ) ;
#25 = PRODUCT_DEFINITION_FORMATION_WITH_SPECIFIED_SOURCE ( 'ANY', '', #113, .NOT_KNOWN. ) ;
#26 = FACE_OUTER_BOUND ( 'NONE', #21, .T. ) ;
#27 = CC_DESIGN_PERSON_AND_ORGANIZATION_ASSIGNMENT ( #102, #58, ( #146 ) ) ;
#28 = CARTESIAN_POINT ( 'NONE',  ( 0.0000000000000000000, 0.0000000000000000000, -3.174999999999999800 ) ) ;
#29 = CARTESIAN_POINT ( 'NONE',  ( -19.05000000000000100, 0.0000000000000000000, -3.174999999999999800 ) ) ;
#30 = DIRECTION ( 'NONE',  ( -0.0000000000000000000, -0.0000000000000000000, -1.000000000000000000 ) ) ;
#31 = CIRCLE ( 'NONE', #158, 19.05000000000000100 ) ;
#32 = ADVANCED_FACE ( 'NONE', ( #26 ), #51, .F. ) ;
#33 = VECTOR ( 'NONE', #30, 1000.000000000000000 ) ;
#34 = DATE_AND_TIME ( #49, #108 ) ;
#35 = CC_DESIGN_APPROVAL ( #162, ( #146 ) ) ;
#36 = LOCAL_TIME ( 15, 50, 32.00000000000000000, #77 ) ;
#37 =( GEOMETRIC_REPRESENTATION_CONTEXT ( 3 ) GLOBAL_UNCERTAINTY_ASSIGNED_CONTEXT ( ( #99 ) ) GLOBAL_UNIT_ASSIGNED_CONTEXT ( ( #83, #4, #166 ) ) REPRESENTATION_CONTEXT ( 'NONE', 'WORKASPACE' ) );
#38 = ORIENTED_EDGE ( 'NONE', *, *, #2, .T. ) ;
#39 = APPLICATION_CONTEXT ( 'configuration controlled 3d designs of mechanical parts and assemblies' ) ;
#40 = DIRECTION ( 'NONE',  ( 1.000000000000000000, 0.0000000000000000000, 0.0000000000000000000 ) ) ;
#41 = DIRECTION ( 'NONE',  ( 0.0000000000000000000, 0.0000000000000000000, 1.000000000000000000 ) ) ;
#42 = PERSON_AND_ORGANIZATION_ROLE ( 'design_supplier' ) ;
#43 = EDGE_CURVE ( 'NONE', #46, #175, #89, .T. ) ;
#44 = PERSON_AND_ORGANIZATION ( #126, #14 ) ;
#45 = CC_DESIGN_PERSON_AND_ORGANIZATION_ASSIGNMENT ( #174, #87, ( #25 ) ) ;
#46 = VERTEX_POINT ( 'NONE', #1 ) ;
#47 = CC_DESIGN_DATE_AND_TIME_ASSIGNMENT ( #144, #128, ( #146 ) ) ;
#48 = LINE ( 'NONE', #139, #17 ) ;
#49 = CALENDAR_DATE ( 2018, 18, 10 ) ;
#50 = AXIS2_PLACEMENT_3D ( 'NONE', #53, #161, #81 ) ;
#51 = PLANE ( 'NONE',  #118 ) ;
#52 = AXIS2_PLACEMENT_3D ( 'NONE', #137, #16, #163 ) ;
#53 = CARTESIAN_POINT ( 'NONE',  ( 0.0000000000000000000, 0.0000000000000000000, -3.174999999999999800 ) ) ;
#54 = FACE_OUTER_BOUND ( 'NONE', #100, .T. ) ;
#55 = APPROVAL_ROLE ( '' ) ;
#56 = CC_DESIGN_SECURITY_CLASSIFICATION ( #146, ( #25 ) ) ;
#57 = LOCAL_TIME ( 15, 50, 32.00000000000000000, #122 ) ;
#58 = PERSON_AND_ORGANIZATION_ROLE ( 'classification_officer' ) ;
#59 = DIRECTION ( 'NONE',  ( -0.0000000000000000000, -0.0000000000000000000, -1.000000000000000000 ) ) ;
#60 = EDGE_CURVE ( 'NONE', #46, #141, #105, .T. ) ;
#61 = ORIENTED_EDGE ( 'NONE', *, *, #169, .T. ) ;
#62 = APPROVAL_PERSON_ORGANIZATION ( #98, #162, #88 ) ;
#63 = DESIGN_CONTEXT ( 'detailed design', #39, 'design' ) ;
#64 = CARTESIAN_POINT ( 'NONE',  ( 0.0000000000000000000, 0.0000000000000000000, -3.174999999999999800 ) ) ;
#65 = CC_DESIGN_PERSON_AND_ORGANIZATION_ASSIGNMENT ( #171, #42, ( #25 ) ) ;
#66 = CLOSED_SHELL ( 'NONE', ( #134, #149, #168, #32 ) ) ;
#67 = PERSON_AND_ORGANIZATION ( #126, #14 ) ;
#68 = DIRECTION ( 'NONE',  ( 1.000000000000000000, 0.0000000000000000000, 0.0000000000000000000 ) ) ;
#69 = DIRECTION ( 'NONE',  ( 1.000000000000000000, 0.0000000000000000000, -0.0000000000000000000 ) ) ;
#70 = ADVANCED_BREP_SHAPE_REPRESENTATION ( 'Web Model 38912_39012', ( #109, #13 ), #37 ) ;
#71 = DIRECTION ( 'NONE',  ( 1.000000000000000000, 0.0000000000000000000, -0.0000000000000000000 ) ) ;
#72 = DIRECTION ( 'NONE',  ( -0.0000000000000000000, -0.0000000000000000000, -1.000000000000000000 ) ) ;
#73 = COORDINATED_UNIVERSAL_TIME_OFFSET ( 5, 0, .BEHIND. ) ;
#74 = AXIS2_PLACEMENT_3D ( 'NONE', #28, #3, #68 ) ;
#75 = APPROVAL_STATUS ( 'not_yet_approved' ) ;
#76 = CALENDAR_DATE ( 2018, 18, 10 ) ;
#77 = COORDINATED_UNIVERSAL_TIME_OFFSET ( 5, 0, .BEHIND. ) ;
#78 = ORIENTED_EDGE ( 'NONE', *, *, #60, .F. ) ;
#79 = APPROVAL_PERSON_ORGANIZATION ( #67, #155, #55 ) ;
#80 = AXIS2_PLACEMENT_3D ( 'NONE', #7, #59, #94 ) ;
#81 = DIRECTION ( 'NONE',  ( 1.000000000000000000, 0.0000000000000000000, 0.0000000000000000000 ) ) ;
#82 = CALENDAR_DATE ( 2018, 18, 10 ) ;
#83 =( LENGTH_UNIT ( ) NAMED_UNIT ( * ) SI_UNIT ( .MILLI., .METRE. ) );
#84 = DATE_AND_TIME ( #82, #157 ) ;
#85 = APPLICATION_CONTEXT ( 'configuration controlled 3d designs of mechanical parts and assemblies' ) ;
#86 = DIRECTION ( 'NONE',  ( 0.0000000000000000000, 0.0000000000000000000, 1.000000000000000000 ) ) ;
#87 = PERSON_AND_ORGANIZATION_ROLE ( 'creator' ) ;
#88 = APPROVAL_ROLE ( '' ) ;
#89 = CIRCLE ( 'NONE', #90, 19.05000000000000100 ) ;
#90 = AXIS2_PLACEMENT_3D ( 'NONE', #106, #121, #40 ) ;
#91 = APPROVAL_PERSON_ORGANIZATION ( #44, #104, #135 ) ;
#92 = ORIENTED_EDGE ( 'NONE', *, *, #43, .T. ) ;
#93 = VERTEX_POINT ( 'NONE', #150 ) ;
#94 = DIRECTION ( 'NONE',  ( -1.000000000000000000, 0.0000000000000000000, 0.0000000000000000000 ) ) ;
#95 = DIRECTION ( 'NONE',  ( 0.0000000000000000000, 0.0000000000000000000, 1.000000000000000000 ) ) ;
#96 = APPLICATION_PROTOCOL_DEFINITION ( 'international standard', 'config_control_design', 1994, #39 ) ;
#97 = DIRECTION ( 'NONE',  ( 1.000000000000000000, 0.0000000000000000000, 0.0000000000000000000 ) ) ;
#98 = PERSON_AND_ORGANIZATION ( #126, #14 ) ;
#99 = UNCERTAINTY_MEASURE_WITH_UNIT (LENGTH_MEASURE( 1.000000000000000100E-005 ), #83, 'distance_accuracy_value', 'NONE');
#100 = EDGE_LOOP ( 'NONE', ( #23, #101, #110, #38 ) ) ;
#101 = ORIENTED_EDGE ( 'NONE', *, *, #43, .F. ) ;
#102 = PERSON_AND_ORGANIZATION ( #126, #14 ) ;
#103 = DIRECTION ( 'NONE',  ( 0.0000000000000000000, 0.0000000000000000000, 1.000000000000000000 ) ) ;
#104 = APPROVAL ( #75, 'UNSPECIFIED' ) ;
#105 = LINE ( 'NONE', #18, #33 ) ;
#106 = CARTESIAN_POINT ( 'NONE',  ( 0.0000000000000000000, 0.0000000000000000000, 3.174999999999999800 ) ) ;
#107 = PERSON_AND_ORGANIZATION_ROLE ( 'creator' ) ;
#108 = LOCAL_TIME ( 15, 50, 32.00000000000000000, #153 ) ;
#109 = MANIFOLD_SOLID_BREP ( 'Boss-Extrude1', #66 ) ;
#110 = ORIENTED_EDGE ( 'NONE', *, *, #60, .T. ) ;
#111 = EDGE_CURVE ( 'NONE', #175, #93, #48, .T. ) ;
#112 = CALENDAR_DATE ( 2018, 18, 10 ) ;
#113 = PRODUCT ( 'Web Model 38912_39012', 'Web Model 38912_39012', '', ( #5 ) ) ;
#114 = DATE_AND_TIME ( #112, #57 ) ;
#115 = CC_DESIGN_APPROVAL ( #104, ( #120 ) ) ;
#116 = CYLINDRICAL_SURFACE ( 'NONE', #52, 19.05000000000000100 ) ;
#117 = LOCAL_TIME ( 15, 50, 32.00000000000000000, #132 ) ;
#118 = AXIS2_PLACEMENT_3D ( 'NONE', #64, #103, #71 ) ;
#119 = CIRCLE ( 'NONE', #74, 19.05000000000000100 ) ;
#120 = PRODUCT_DEFINITION ( 'UNKNOWN', '', #25, #63 ) ;
#121 = DIRECTION ( 'NONE',  ( 0.0000000000000000000, 0.0000000000000000000, 1.000000000000000000 ) ) ;
#122 = COORDINATED_UNIVERSAL_TIME_OFFSET ( 5, 0, .BEHIND. ) ;
#123 = PLANE ( 'NONE',  #148 ) ;
#124 = CARTESIAN_POINT ( 'NONE',  ( 0.0000000000000000000, 0.0000000000000000000, 0.0000000000000000000 ) ) ;
#125 = DIRECTION ( 'NONE',  ( 1.000000000000000000, 0.0000000000000000000, 0.0000000000000000000 ) ) ;
#126 = PERSON ( 'UNSPECIFIED', 'UNSPECIFIED', 'UNSPECIFIED', ('UNSPECIFIED'), ('UNSPECIFIED'), ('UNSPECIFIED') ) ;
#127 = CC_DESIGN_PERSON_AND_ORGANIZATION_ASSIGNMENT ( #10, #107, ( #120 ) ) ;
#128 = DATE_TIME_ROLE ( 'classification_date' ) ;
#129 = SHAPE_DEFINITION_REPRESENTATION ( #15, #70 ) ;
#130 = ORIENTED_EDGE ( 'NONE', *, *, #2, .F. ) ;
#131 = ORIENTED_EDGE ( 'NONE', *, *, #111, .T. ) ;
#132 = COORDINATED_UNIVERSAL_TIME_OFFSET ( 5, 0, .BEHIND. ) ;
#133 = EDGE_LOOP ( 'NONE', ( #147, #131, #143, #78 ) ) ;
#134 = ADVANCED_FACE ( 'NONE', ( #9 ), #116, .T. ) ;
#135 = APPROVAL_ROLE ( '' ) ;
#136 = APPROVAL_DATE_TIME ( #12, #155 ) ;
#137 = CARTESIAN_POINT ( 'NONE',  ( 0.0000000000000000000, 0.0000000000000000000, 3.174999999999999800 ) ) ;
#138 = CC_DESIGN_APPROVAL ( #155, ( #25 ) ) ;
#139 = CARTESIAN_POINT ( 'NONE',  ( 19.05000000000000100, 2.332952152375708000E-015, 3.174999999999999800 ) ) ;
#140 = SECURITY_CLASSIFICATION_LEVEL ( 'unclassified' ) ;
#141 = VERTEX_POINT ( 'NONE', #29 ) ;
#142 = EDGE_CURVE ( 'NONE', #93, #141, #119, .T. ) ;
#143 = ORIENTED_EDGE ( 'NONE', *, *, #142, .T. ) ;
#144 = DATE_AND_TIME ( #76, #117 ) ;
#145 = CC_DESIGN_DATE_AND_TIME_ASSIGNMENT ( #34, #167, ( #120 ) ) ;
#146 = SECURITY_CLASSIFICATION ( '', '', #140 ) ;
#147 = ORIENTED_EDGE ( 'NONE', *, *, #169, .F. ) ;
#148 = AXIS2_PLACEMENT_3D ( 'NONE', #151, #41, #69 ) ;
#149 = ADVANCED_FACE ( 'NONE', ( #54 ), #160, .T. ) ;
#150 = CARTESIAN_POINT ( 'NONE',  ( 19.05000000000000100, 2.332952152375708000E-015, -3.174999999999999800 ) ) ;
#151 = CARTESIAN_POINT ( 'NONE',  ( 0.0000000000000000000, 0.0000000000000000000, 3.174999999999999800 ) ) ;
#152 = CARTESIAN_POINT ( 'NONE',  ( 0.0000000000000000000, 0.0000000000000000000, 3.174999999999999800 ) ) ;
#153 = COORDINATED_UNIVERSAL_TIME_OFFSET ( 5, 0, .BEHIND. ) ;
#154 = APPLICATION_PROTOCOL_DEFINITION ( 'international standard', 'config_control_design', 1994, #85 ) ;
#155 = APPROVAL ( #19, 'UNSPECIFIED' ) ;
#156 = CIRCLE ( 'NONE', #50, 19.05000000000000100 ) ;
#157 = LOCAL_TIME ( 15, 50, 32.00000000000000000, #73 ) ;
#158 = AXIS2_PLACEMENT_3D ( 'NONE', #152, #86, #97 ) ;
#159 = PERSON_AND_ORGANIZATION ( #126, #14 ) ;
#160 = CYLINDRICAL_SURFACE ( 'NONE', #80, 19.05000000000000100 ) ;
#161 = DIRECTION ( 'NONE',  ( 0.0000000000000000000, 0.0000000000000000000, 1.000000000000000000 ) ) ;
#162 = APPROVAL ( #170, 'UNSPECIFIED' ) ;
#163 = DIRECTION ( 'NONE',  ( -1.000000000000000000, 0.0000000000000000000, 0.0000000000000000000 ) ) ;
#164 = ORIENTED_EDGE ( 'NONE', *, *, #142, .F. ) ;
#165 = CARTESIAN_POINT ( 'NONE',  ( 19.05000000000000100, 2.332952152375708000E-015, 3.174999999999999800 ) ) ;
#166 =( NAMED_UNIT ( * ) SI_UNIT ( $, .STERADIAN. ) SOLID_ANGLE_UNIT ( ) );
#167 = DATE_TIME_ROLE ( 'creation_date' ) ;
#168 = ADVANCED_FACE ( 'NONE', ( #173 ), #123, .T. ) ;
#169 = EDGE_CURVE ( 'NONE', #175, #46, #31, .T. ) ;
#170 = APPROVAL_STATUS ( 'not_yet_approved' ) ;
#171 = PERSON_AND_ORGANIZATION ( #126, #14 ) ;
#172 = PRODUCT_RELATED_PRODUCT_CATEGORY ( 'detail', '', ( #113 ) ) ;
#173 = FACE_OUTER_BOUND ( 'NONE', #24, .T. ) ;
#174 = PERSON_AND_ORGANIZATION ( #126, #14 ) ;
#175 = VERTEX_POINT ( 'NONE', #165 ) ;
ENDSEC;
END-ISO-10303-21;
