ISO-10303-21;
HEADER;
FILE_DESCRIPTION (( 'STEP AP214' ),
    '1' );
FILE_NAME ('3116-E0W.STEP',
    '2009-12-21T16:54:36',
    ( ' ' ),
    ( ' ' ),
    'SwSTEP 2.0',
    'SolidWorks 2009',
    '' );
FILE_SCHEMA (( 'AUTOMOTIVE_DESIGN' ));
ENDSEC;

DATA;
#1 = APPLICATION_PROTOCOL_DEFINITION ( 'draft international standard', 'automotive_design', 1998, #2 ) ;
#2 = APPLICATION_CONTEXT ( 'automotive_design' ) ;
#3 = PRODUCT_CONTEXT ( 'NONE', #2, 'mechanical' ) ;
#4 = APPLICATION_PROTOCOL_DEFINITION ( 'draft international standard', 'automotive_design', 1998, #5 ) ;
#5 = APPLICATION_CONTEXT ( 'automotive_design' ) ;
#6 = PRODUCT ( '3116-E0W', '3116-E0W', '', ( #3 ) ) ;
#7 = PRODUCT_RELATED_PRODUCT_CATEGORY ( 'part', '', ( #6 ) ) ;
#8 = PRODUCT_DEFINITION_FORMATION_WITH_SPECIFIED_SOURCE ( 'ANY', '', #6, .NOT_KNOWN. ) ;
#9 = PRODUCT_DEFINITION ( 'UNKNOWN', '', #8, #10 ) ;
#10 = PRODUCT_DEFINITION_CONTEXT ( 'detailed design', #5, 'design' ) ;
#11 = PRODUCT_DEFINITION_SHAPE ( 'NONE', 'NONE',  #9 ) ;
#12 = SHAPE_DEFINITION_REPRESENTATION ( #11, #199 ) ;
#13 = CYLINDRICAL_SURFACE ( 'NONE', #65, 2.999999999999999100 ) ;
#14 =( GEOMETRIC_REPRESENTATION_CONTEXT ( 3 ) GLOBAL_UNCERTAINTY_ASSIGNED_CONTEXT ( ( #15 ) ) GLOBAL_UNIT_ASSIGNED_CONTEXT ( ( #18, #17, #16 ) ) REPRESENTATION_CONTEXT ( 'NONE', 'WORKASPACE' ) );
#15 = UNCERTAINTY_MEASURE_WITH_UNIT (LENGTH_MEASURE( 1.000000000000000100E-005 ), #18, 'distance_accuracy_value', 'NONE');
#16 =( NAMED_UNIT ( * ) SI_UNIT ( $, .STERADIAN. ) SOLID_ANGLE_UNIT ( ) );
#17 =( NAMED_UNIT ( * ) PLANE_ANGLE_UNIT ( ) SI_UNIT ( $, .RADIAN. ) );
#18 =( LENGTH_UNIT ( ) NAMED_UNIT ( * ) SI_UNIT ( .MILLI., .METRE. ) );
#19 = MECHANICAL_DESIGN_GEOMETRIC_PRESENTATION_REPRESENTATION (  '', ( #21 ), #14 ) ;
#20 = PRESENTATION_LAYER_ASSIGNMENT (  '', '', ( #21 ) ) ;
#21 = STYLED_ITEM ( 'NONE', ( #22 ), #216 ) ;
#22 = PRESENTATION_STYLE_ASSIGNMENT (( #23 ) ) ;
#23 = SURFACE_STYLE_USAGE ( .BOTH. , #24 ) ;
#24 = SURFACE_SIDE_STYLE ('',( #25 ) ) ;
#25 = SURFACE_STYLE_FILL_AREA ( #26 ) ;
#26 = FILL_AREA_STYLE ('',( #34 ) ) ;
#27 = COLOUR_RGB ( '',0.9568627450980391500, 0.9490196078431372100, 0.9607843137254902200 ) ;
#28 = FACE_OUTER_BOUND ( 'NONE', #219, .T. ) ;
#29 = DIRECTION ( 'NONE',  ( 1.000000000000000000, 0.0000000000000000000, 0.0000000000000000000 ) ) ;
#30 = DIRECTION ( 'NONE',  ( -0.0000000000000000000, -0.0000000000000000000, 1.000000000000000000 ) ) ;
#31 = CARTESIAN_POINT ( 'NONE',  ( 0.0000000000000000000, 0.0000000000000000000, -1.230000000000000200 ) ) ;
#32 = AXIS2_PLACEMENT_3D ( 'NONE', #31, #30, #29 ) ;
#33 = CIRCLE ( 'NONE', #32, 2.999999999999999100 ) ;
#34 = FILL_AREA_STYLE_COLOUR ( '', #27 ) ;
#35 = DIRECTION ( 'NONE',  ( -1.000000000000000000, 1.224606353822377300E-016, 0.0000000000000000000 ) ) ;
#36 = CARTESIAN_POINT ( 'NONE',  ( 0.0000000000000000000, 0.0000000000000000000, -3.919999999999996400 ) ) ;
#37 = AXIS2_PLACEMENT_3D ( 'NONE', #36, #35, #112 ) ;
#38 = CIRCLE ( 'NONE', #37, 5.149999999999998600 ) ;
#39 = COLOUR_RGB ( '',0.7960784313725489700, 0.8235294117647058400, 0.9372549019607843100 ) ;
#40 = CARTESIAN_POINT ( 'NONE',  ( -3.673819061467129300E-016, -2.999999999999998200, 0.2659885331902224200 ) ) ;
#41 = DIRECTION ( 'NONE',  ( 1.000000000000000000, 0.0000000000000000000, 0.0000000000000000000 ) ) ;
#42 = DIRECTION ( 'NONE',  ( -0.0000000000000000000, -0.0000000000000000000, 1.000000000000000000 ) ) ;
#43 = CARTESIAN_POINT ( 'NONE',  ( 0.0000000000000000000, 0.0000000000000000000, 0.2659885331902219800 ) ) ;
#44 = AXIS2_PLACEMENT_3D ( 'NONE', #43, #42, #41 ) ;
#45 = CIRCLE ( 'NONE', #44, 2.999999999999999100 ) ;
#46 = DIRECTION ( 'NONE',  ( 1.000000000000000000, 0.0000000000000000000, 0.0000000000000000000 ) ) ;
#47 = DIRECTION ( 'NONE',  ( -0.0000000000000000000, -0.0000000000000000000, 1.000000000000000000 ) ) ;
#48 = CARTESIAN_POINT ( 'NONE',  ( 0.0000000000000000000, 0.0000000000000000000, -1.230000000000000200 ) ) ;
#49 = AXIS2_PLACEMENT_3D ( 'NONE', #48, #47, #46 ) ;
#50 = CIRCLE ( 'NONE', #49, 2.999999999999999100 ) ;
#51 = CARTESIAN_POINT ( 'NONE',  ( -2.999999999999999100, 3.673819061467130800E-016, 0.2659885331902219800 ) ) ;
#52 = CARTESIAN_POINT ( 'NONE',  ( -2.999999999999999100, 3.673819061467130800E-016, -1.230000000000000200 ) ) ;
#53 = DIRECTION ( 'NONE',  ( -0.0000000000000000000, -0.0000000000000000000, 1.000000000000000000 ) ) ;
#54 = VECTOR ( 'NONE', #53, 1000.000000000000000 ) ;
#55 = CARTESIAN_POINT ( 'NONE',  ( -2.999999999999999100, 3.673819061467130800E-016, 4.308132045400366600 ) ) ;
#56 = LINE ( 'NONE', #55, #54 ) ;
#57 = DIRECTION ( 'NONE',  ( 1.000000000000000000, 0.0000000000000000000, 0.0000000000000000000 ) ) ;
#58 = DIRECTION ( 'NONE',  ( -0.0000000000000000000, -0.0000000000000000000, 1.000000000000000000 ) ) ;
#59 = CARTESIAN_POINT ( 'NONE',  ( 0.0000000000000000000, 0.0000000000000000000, 0.2659885331902219800 ) ) ;
#60 = AXIS2_PLACEMENT_3D ( 'NONE', #59, #58, #57 ) ;
#61 = CIRCLE ( 'NONE', #60, 2.999999999999999100 ) ;
#62 = DIRECTION ( 'NONE',  ( 1.000000000000000000, 0.0000000000000000000, 0.0000000000000000000 ) ) ;
#63 = DIRECTION ( 'NONE',  ( -0.0000000000000000000, -0.0000000000000000000, 1.000000000000000000 ) ) ;
#64 = CARTESIAN_POINT ( 'NONE',  ( 0.0000000000000000000, 0.0000000000000000000, 4.308132045400366600 ) ) ;
#65 = AXIS2_PLACEMENT_3D ( 'NONE', #64, #63, #62 ) ;
#66 = CARTESIAN_POINT ( 'NONE',  ( 2.999999999999999100, 0.0000000000000000000, -1.230000000000000200 ) ) ;
#67 = DIRECTION ( 'NONE',  ( 1.000000000000000000, 0.0000000000000000000, 0.0000000000000000000 ) ) ;
#68 = DIRECTION ( 'NONE',  ( 0.0000000000000000000, 0.0000000000000000000, 1.000000000000000000 ) ) ;
#69 = AXIS2_PLACEMENT_3D ( 'NONE', #209, #68, #67 ) ;
#70 =( GEOMETRIC_REPRESENTATION_CONTEXT ( 3 ) GLOBAL_UNCERTAINTY_ASSIGNED_CONTEXT ( ( #71 ) ) GLOBAL_UNIT_ASSIGNED_CONTEXT ( ( #74, #73, #72 ) ) REPRESENTATION_CONTEXT ( 'NONE', 'WORKASPACE' ) );
#71 = UNCERTAINTY_MEASURE_WITH_UNIT (LENGTH_MEASURE( 1.000000000000000100E-005 ), #74, 'distance_accuracy_value', 'NONE');
#72 =( NAMED_UNIT ( * ) SI_UNIT ( $, .STERADIAN. ) SOLID_ANGLE_UNIT ( ) );
#73 =( NAMED_UNIT ( * ) PLANE_ANGLE_UNIT ( ) SI_UNIT ( $, .RADIAN. ) );
#74 =( LENGTH_UNIT ( ) NAMED_UNIT ( * ) SI_UNIT ( .MILLI., .METRE. ) );
#75 = MECHANICAL_DESIGN_GEOMETRIC_PRESENTATION_REPRESENTATION (  '', ( #77 ), #70 ) ;
#76 = PRESENTATION_LAYER_ASSIGNMENT (  '', '', ( #77 ) ) ;
#77 = STYLED_ITEM ( 'NONE', ( #78 ), #199 ) ;
#78 = PRESENTATION_STYLE_ASSIGNMENT (( #79 ) ) ;
#79 = SURFACE_STYLE_USAGE ( .BOTH. , #80 ) ;
#80 = SURFACE_SIDE_STYLE ('',( #81 ) ) ;
#81 = SURFACE_STYLE_FILL_AREA ( #82 ) ;
#82 = FILL_AREA_STYLE ('',( #83 ) ) ;
#83 = FILL_AREA_STYLE_COLOUR ( '', #198 ) ;
#84 =( NAMED_UNIT ( * ) SI_UNIT ( $, .STERADIAN. ) SOLID_ANGLE_UNIT ( ) );
#85 =( NAMED_UNIT ( * ) PLANE_ANGLE_UNIT ( ) SI_UNIT ( $, .RADIAN. ) );
#86 =( LENGTH_UNIT ( ) NAMED_UNIT ( * ) SI_UNIT ( .MILLI., .METRE. ) );
#87 = MECHANICAL_DESIGN_GEOMETRIC_PRESENTATION_REPRESENTATION (  '', ( #89 ), #134 ) ;
#88 = PRESENTATION_LAYER_ASSIGNMENT (  '', '', ( #89 ) ) ;
#89 = STYLED_ITEM ( 'NONE', ( #90 ), #238 ) ;
#90 = PRESENTATION_STYLE_ASSIGNMENT (( #91 ) ) ;
#91 = SURFACE_STYLE_USAGE ( .BOTH. , #92 ) ;
#92 = SURFACE_SIDE_STYLE ('',( #93 ) ) ;
#93 = SURFACE_STYLE_FILL_AREA ( #94 ) ;
#94 = FILL_AREA_STYLE ('',( #95 ) ) ;
#95 = FILL_AREA_STYLE_COLOUR ( '', #96 ) ;
#96 = COLOUR_RGB ( '',0.9568627450980391500, 0.9490196078431372100, 0.9607843137254902200 ) ;
#97 = FACE_OUTER_BOUND ( 'NONE', #239, .T. ) ;
#98 =( GEOMETRIC_REPRESENTATION_CONTEXT ( 3 ) GLOBAL_UNCERTAINTY_ASSIGNED_CONTEXT ( ( #99 ) ) GLOBAL_UNIT_ASSIGNED_CONTEXT ( ( #102, #101, #100 ) ) REPRESENTATION_CONTEXT ( 'NONE', 'WORKASPACE' ) );
#99 = UNCERTAINTY_MEASURE_WITH_UNIT (LENGTH_MEASURE( 1.000000000000000100E-005 ), #102, 'distance_accuracy_value', 'NONE');
#100 =( NAMED_UNIT ( * ) SI_UNIT ( $, .STERADIAN. ) SOLID_ANGLE_UNIT ( ) );
#101 =( NAMED_UNIT ( * ) PLANE_ANGLE_UNIT ( ) SI_UNIT ( $, .RADIAN. ) );
#102 =( LENGTH_UNIT ( ) NAMED_UNIT ( * ) SI_UNIT ( .MILLI., .METRE. ) );
#103 = MECHANICAL_DESIGN_GEOMETRIC_PRESENTATION_REPRESENTATION (  '', ( #105 ), #98 ) ;
#104 = PRESENTATION_LAYER_ASSIGNMENT (  '', '', ( #105 ) ) ;
#105 = STYLED_ITEM ( 'NONE', ( #106 ), #237 ) ;
#106 = PRESENTATION_STYLE_ASSIGNMENT (( #107 ) ) ;
#107 = SURFACE_STYLE_USAGE ( .BOTH. , #108 ) ;
#108 = SURFACE_SIDE_STYLE ('',( #109 ) ) ;
#109 = SURFACE_STYLE_FILL_AREA ( #110 ) ;
#110 = FILL_AREA_STYLE ('',( #111 ) ) ;
#111 = FILL_AREA_STYLE_COLOUR ( '', #39 ) ;
#112 = DIRECTION ( 'NONE',  ( -1.224606353822377000E-016, -1.000000000000000000, 0.0000000000000000000 ) ) ;
#113 =( GEOMETRIC_REPRESENTATION_CONTEXT ( 3 ) GLOBAL_UNCERTAINTY_ASSIGNED_CONTEXT ( ( #114 ) ) GLOBAL_UNIT_ASSIGNED_CONTEXT ( ( #117, #116, #115 ) ) REPRESENTATION_CONTEXT ( 'NONE', 'WORKASPACE' ) );
#114 = UNCERTAINTY_MEASURE_WITH_UNIT (LENGTH_MEASURE( 1.000000000000000100E-005 ), #117, 'distance_accuracy_value', 'NONE');
#115 =( NAMED_UNIT ( * ) SI_UNIT ( $, .STERADIAN. ) SOLID_ANGLE_UNIT ( ) );
#116 =( NAMED_UNIT ( * ) PLANE_ANGLE_UNIT ( ) SI_UNIT ( $, .RADIAN. ) );
#117 =( LENGTH_UNIT ( ) NAMED_UNIT ( * ) SI_UNIT ( .MILLI., .METRE. ) );
#118 = MECHANICAL_DESIGN_GEOMETRIC_PRESENTATION_REPRESENTATION (  '', ( #120 ), #113 ) ;
#119 = PRESENTATION_LAYER_ASSIGNMENT (  '', '', ( #120 ) ) ;
#120 = STYLED_ITEM ( 'NONE', ( #121 ), #242 ) ;
#121 = PRESENTATION_STYLE_ASSIGNMENT (( #122 ) ) ;
#122 = SURFACE_STYLE_USAGE ( .BOTH. , #123 ) ;
#123 = SURFACE_SIDE_STYLE ('',( #124 ) ) ;
#124 = SURFACE_STYLE_FILL_AREA ( #125 ) ;
#125 = FILL_AREA_STYLE ('',( #132 ) ) ;
#126 = COLOUR_RGB ( '',0.9568627450980391500, 0.9490196078431372100, 0.9607843137254902200 ) ;
#127 = DIRECTION ( 'NONE',  ( 1.000000000000000000, 0.0000000000000000000, 0.0000000000000000000 ) ) ;
#128 = DIRECTION ( 'NONE',  ( -0.0000000000000000000, -0.0000000000000000000, 1.000000000000000000 ) ) ;
#129 = CARTESIAN_POINT ( 'NONE',  ( 0.0000000000000000000, 0.0000000000000000000, 4.308132045400366600 ) ) ;
#130 = AXIS2_PLACEMENT_3D ( 'NONE', #129, #128, #127 ) ;
#131 = FACE_OUTER_BOUND ( 'NONE', #243, .T. ) ;
#132 = FILL_AREA_STYLE_COLOUR ( '', #126 ) ;
#133 = CYLINDRICAL_SURFACE ( 'NONE', #130, 2.999999999999999100 ) ;
#134 =( GEOMETRIC_REPRESENTATION_CONTEXT ( 3 ) GLOBAL_UNCERTAINTY_ASSIGNED_CONTEXT ( ( #135 ) ) GLOBAL_UNIT_ASSIGNED_CONTEXT ( ( #86, #85, #84 ) ) REPRESENTATION_CONTEXT ( 'NONE', 'WORKASPACE' ) );
#135 = UNCERTAINTY_MEASURE_WITH_UNIT (LENGTH_MEASURE( 1.000000000000000100E-005 ), #86, 'distance_accuracy_value', 'NONE');
#136 = UNCERTAINTY_MEASURE_WITH_UNIT (LENGTH_MEASURE( 1.000000000000000100E-005 ), #139, 'distance_accuracy_value', 'NONE');
#137 =( NAMED_UNIT ( * ) SI_UNIT ( $, .STERADIAN. ) SOLID_ANGLE_UNIT ( ) );
#138 =( NAMED_UNIT ( * ) PLANE_ANGLE_UNIT ( ) SI_UNIT ( $, .RADIAN. ) );
#139 =( LENGTH_UNIT ( ) NAMED_UNIT ( * ) SI_UNIT ( .MILLI., .METRE. ) );
#140 = MECHANICAL_DESIGN_GEOMETRIC_PRESENTATION_REPRESENTATION (  '', ( #142 ), #197 ) ;
#141 = PRESENTATION_LAYER_ASSIGNMENT (  '', '', ( #142 ) ) ;
#142 = STYLED_ITEM ( 'NONE', ( #143 ), #252 ) ;
#143 = PRESENTATION_STYLE_ASSIGNMENT (( #144 ) ) ;
#144 = SURFACE_STYLE_USAGE ( .BOTH. , #145 ) ;
#145 = SURFACE_SIDE_STYLE ('',( #146 ) ) ;
#146 = SURFACE_STYLE_FILL_AREA ( #147 ) ;
#147 = FILL_AREA_STYLE ('',( #148 ) ) ;
#148 = FILL_AREA_STYLE_COLOUR ( '', #149 ) ;
#149 = COLOUR_RGB ( '',0.9568627450980391500, 0.9490196078431372100, 0.9607843137254902200 ) ;
#150 = DIRECTION ( 'NONE',  ( 0.0000000000000000000, 0.0000000000000000000, -1.000000000000000000 ) ) ;
#151 = DIRECTION ( 'NONE',  ( 1.000000000000000000, 0.0000000000000000000, 0.0000000000000000000 ) ) ;
#152 = CARTESIAN_POINT ( 'NONE',  ( 0.0000000000000000000, 0.0000000000000000000, -3.919999999999996400 ) ) ;
#153 = AXIS2_PLACEMENT_3D ( 'NONE', #152, #151, #150 ) ;
#154 = CIRCLE ( 'NONE', #153, 5.149999999999998600 ) ;
#155 = FACE_OUTER_BOUND ( 'NONE', #253, .T. ) ;
#156 = CARTESIAN_POINT ( 'NONE',  ( 0.0000000000000000000, 3.153361361092620100E-016, 1.230000000000002000 ) ) ;
#157 = CARTESIAN_POINT ( 'NONE',  ( 0.0000000000000000000, 2.999999999999998200, 0.2659885331902224200 ) ) ;
#158 = DIRECTION ( 'NONE',  ( 1.000000000000000000, 0.0000000000000000000, 0.0000000000000000000 ) ) ;
#159 = DIRECTION ( 'NONE',  ( -0.0000000000000000000, -0.0000000000000000000, 1.000000000000000000 ) ) ;
#160 = AXIS2_PLACEMENT_3D ( 'NONE', #165, #159, #158 ) ;
#161 = CIRCLE ( 'NONE', #160, 2.999999999999999100 ) ;
#162 = DIRECTION ( 'NONE',  ( 1.000000000000000000, 0.0000000000000000000, 0.0000000000000000000 ) ) ;
#163 = DIRECTION ( 'NONE',  ( 0.0000000000000000000, -0.0000000000000000000, 1.000000000000000000 ) ) ;
#164 = CARTESIAN_POINT ( 'NONE',  ( 0.0000000000000000000, 4.518946688853733400E-016, -1.230000000000000000 ) ) ;
#165 = CARTESIAN_POINT ( 'NONE',  ( 0.0000000000000000000, 0.0000000000000000000, 0.2659885331902219800 ) ) ;
#166 = AXIS2_PLACEMENT_3D ( 'NONE', #164, #163, #162 ) ;
#167 = PLANE ( 'NONE',  #166 ) ;
#168 =( NAMED_UNIT ( * ) SI_UNIT ( $, .STERADIAN. ) SOLID_ANGLE_UNIT ( ) );
#169 =( NAMED_UNIT ( * ) PLANE_ANGLE_UNIT ( ) SI_UNIT ( $, .RADIAN. ) );
#170 =( LENGTH_UNIT ( ) NAMED_UNIT ( * ) SI_UNIT ( .MILLI., .METRE. ) );
#171 = MECHANICAL_DESIGN_GEOMETRIC_PRESENTATION_REPRESENTATION (  '', ( #173 ), #211 ) ;
#172 = PRESENTATION_LAYER_ASSIGNMENT (  '', '', ( #173 ) ) ;
#173 = STYLED_ITEM ( 'NONE', ( #174 ), #259 ) ;
#174 = PRESENTATION_STYLE_ASSIGNMENT (( #175 ) ) ;
#175 = SURFACE_STYLE_USAGE ( .BOTH. , #176 ) ;
#176 = SURFACE_SIDE_STYLE ('',( #177 ) ) ;
#177 = SURFACE_STYLE_FILL_AREA ( #178 ) ;
#178 = FILL_AREA_STYLE ('',( #185 ) ) ;
#179 = COLOUR_RGB ( '',0.9568627450980391500, 0.9490196078431372100, 0.9607843137254902200 ) ;
#180 = FACE_OUTER_BOUND ( 'NONE', #260, .T. ) ;
#181 = DIRECTION ( 'NONE',  ( -0.0000000000000000000, -0.0000000000000000000, 1.000000000000000000 ) ) ;
#182 = VECTOR ( 'NONE', #181, 1000.000000000000000 ) ;
#183 = CARTESIAN_POINT ( 'NONE',  ( 2.999999999999999100, 0.0000000000000000000, 4.308132045400366600 ) ) ;
#184 = LINE ( 'NONE', #183, #182 ) ;
#185 = FILL_AREA_STYLE_COLOUR ( '', #179 ) ;
#186 = CARTESIAN_POINT ( 'NONE',  ( 2.999999999999999100, 0.0000000000000000000, 0.2659885331902219800 ) ) ;
#187 = DIRECTION ( 'NONE',  ( 1.000000000000000000, 0.0000000000000000000, 0.0000000000000000000 ) ) ;
#188 = DIRECTION ( 'NONE',  ( -0.0000000000000000000, -0.0000000000000000000, 1.000000000000000000 ) ) ;
#189 = CARTESIAN_POINT ( 'NONE',  ( 0.0000000000000000000, 0.0000000000000000000, 0.2659885331902219800 ) ) ;
#190 = AXIS2_PLACEMENT_3D ( 'NONE', #189, #188, #187 ) ;
#191 = DIRECTION ( 'NONE',  ( 0.0000000000000000000, 1.000000000000000000, 0.0000000000000000000 ) ) ;
#192 = DIRECTION ( 'NONE',  ( -1.000000000000000000, 0.0000000000000000000, 0.0000000000000000000 ) ) ;
#193 = CARTESIAN_POINT ( 'NONE',  ( 0.0000000000000000000, 0.0000000000000000000, -3.919999999999996400 ) ) ;
#194 = AXIS2_PLACEMENT_3D ( 'NONE', #193, #192, #191 ) ;
#195 = CIRCLE ( 'NONE', #190, 2.999999999999999100 ) ;
#196 = SPHERICAL_SURFACE ( 'NONE', #194, 5.149999999999998600 ) ;
#197 =( GEOMETRIC_REPRESENTATION_CONTEXT ( 3 ) GLOBAL_UNCERTAINTY_ASSIGNED_CONTEXT ( ( #136 ) ) GLOBAL_UNIT_ASSIGNED_CONTEXT ( ( #139, #138, #137 ) ) REPRESENTATION_CONTEXT ( 'NONE', 'WORKASPACE' ) );
#198 = COLOUR_RGB ( '',0.7960784313725489700, 0.8235294117647058400, 0.9372549019607843100 ) ;
#199 = ADVANCED_BREP_SHAPE_REPRESENTATION ( '3116-E0W', ( #237, #69 ), #200 ) ;
#200 =( GEOMETRIC_REPRESENTATION_CONTEXT ( 3 ) GLOBAL_UNCERTAINTY_ASSIGNED_CONTEXT ( ( #201 ) ) GLOBAL_UNIT_ASSIGNED_CONTEXT ( ( #204, #203, #202 ) ) REPRESENTATION_CONTEXT ( 'NONE', 'WORKASPACE' ) );
#201 = UNCERTAINTY_MEASURE_WITH_UNIT (LENGTH_MEASURE( 1.000000000000000100E-005 ), #204, 'distance_accuracy_value', 'NONE');
#202 =( NAMED_UNIT ( * ) SI_UNIT ( $, .STERADIAN. ) SOLID_ANGLE_UNIT ( ) );
#203 =( NAMED_UNIT ( * ) PLANE_ANGLE_UNIT ( ) SI_UNIT ( $, .RADIAN. ) );
#204 =( LENGTH_UNIT ( ) NAMED_UNIT ( * ) SI_UNIT ( .MILLI., .METRE. ) );
#205 = DIRECTION ( 'NONE',  ( 0.0000000000000000000, 1.000000000000000000, 0.0000000000000000000 ) ) ;
#206 = DIRECTION ( 'NONE',  ( -1.000000000000000000, 0.0000000000000000000, 0.0000000000000000000 ) ) ;
#207 = CARTESIAN_POINT ( 'NONE',  ( 0.0000000000000000000, 0.0000000000000000000, -3.919999999999996400 ) ) ;
#208 = AXIS2_PLACEMENT_3D ( 'NONE', #207, #206, #205 ) ;
#209 = CARTESIAN_POINT ( 'NONE',  ( 0.0000000000000000000, 0.0000000000000000000, 0.0000000000000000000 ) ) ;
#210 = SPHERICAL_SURFACE ( 'NONE', #208, 5.149999999999998600 ) ;
#211 =( GEOMETRIC_REPRESENTATION_CONTEXT ( 3 ) GLOBAL_UNCERTAINTY_ASSIGNED_CONTEXT ( ( #212 ) ) GLOBAL_UNIT_ASSIGNED_CONTEXT ( ( #170, #169, #168 ) ) REPRESENTATION_CONTEXT ( 'NONE', 'WORKASPACE' ) );
#212 = UNCERTAINTY_MEASURE_WITH_UNIT (LENGTH_MEASURE( 1.000000000000000100E-005 ), #170, 'distance_accuracy_value', 'NONE');
#213 = ORIENTED_EDGE ( 'NONE', *, *, #222, .F. ) ;
#214 = ORIENTED_EDGE ( 'NONE', *, *, #258, .T. ) ;
#215 = EDGE_CURVE ( 'NONE', #229, #221, #33, .T. ) ;
#216 = ADVANCED_FACE ( 'NONE', ( #28 ), #13, .T. ) ;
#217 = ORIENTED_EDGE ( 'NONE', *, *, #215, .T. ) ;
#218 = ORIENTED_EDGE ( 'NONE', *, *, #226, .F. ) ;
#219 = EDGE_LOOP ( 'NONE', ( #218, #217, #214, #213, #241 ) ) ;
#220 = ORIENTED_EDGE ( 'NONE', *, *, #251, .T. ) ;
#221 = VERTEX_POINT ( 'NONE', #66 ) ;
#222 = EDGE_CURVE ( 'NONE', #234, #256, #61, .T. ) ;
#223 = ORIENTED_EDGE ( 'NONE', *, *, #222, .T. ) ;
#224 = ORIENTED_EDGE ( 'NONE', *, *, #255, .T. ) ;
#225 = ORIENTED_EDGE ( 'NONE', *, *, #236, .F. ) ;
#226 = EDGE_CURVE ( 'NONE', #229, #230, #56, .T. ) ;
#227 = ORIENTED_EDGE ( 'NONE', *, *, #247, .F. ) ;
#228 = ORIENTED_EDGE ( 'NONE', *, *, #226, .T. ) ;
#229 = VERTEX_POINT ( 'NONE', #52 ) ;
#230 = VERTEX_POINT ( 'NONE', #51 ) ;
#231 = EDGE_CURVE ( 'NONE', #221, #229, #50, .T. ) ;
#232 = ORIENTED_EDGE ( 'NONE', *, *, #233, .T. ) ;
#233 = EDGE_CURVE ( 'NONE', #230, #234, #45, .T. ) ;
#234 = VERTEX_POINT ( 'NONE', #40 ) ;
#235 = ORIENTED_EDGE ( 'NONE', *, *, #236, .T. ) ;
#236 = EDGE_CURVE ( 'NONE', #234, #249, #38, .T. ) ;
#237 = MANIFOLD_SOLID_BREP ( 'NONE', #246 ) ;
#238 = ADVANCED_FACE ( 'NONE', ( #97 ), #133, .T. ) ;
#239 = EDGE_LOOP ( 'NONE', ( #240, #228, #227, #254, #257 ) ) ;
#240 = ORIENTED_EDGE ( 'NONE', *, *, #231, .T. ) ;
#241 = ORIENTED_EDGE ( 'NONE', *, *, #233, .F. ) ;
#242 = ADVANCED_FACE ( 'NONE', ( #131 ), #167, .F. ) ;
#243 = EDGE_LOOP ( 'NONE', ( #244, #245 ) ) ;
#244 = ORIENTED_EDGE ( 'NONE', *, *, #231, .F. ) ;
#245 = ORIENTED_EDGE ( 'NONE', *, *, #215, .F. ) ;
#246 = CLOSED_SHELL ( 'NONE', ( #238, #259, #252, #216, #242 ) ) ;
#247 = EDGE_CURVE ( 'NONE', #248, #230, #161, .T. ) ;
#248 = VERTEX_POINT ( 'NONE', #157 ) ;
#249 = VERTEX_POINT ( 'NONE', #156 ) ;
#250 = ORIENTED_EDGE ( 'NONE', *, *, #251, .F. ) ;
#251 = EDGE_CURVE ( 'NONE', #248, #249, #154, .T. ) ;
#252 = ADVANCED_FACE ( 'NONE', ( #155 ), #196, .T. ) ;
#253 = EDGE_LOOP ( 'NONE', ( #225, #223, #224, #220 ) ) ;
#254 = ORIENTED_EDGE ( 'NONE', *, *, #255, .F. ) ;
#255 = EDGE_CURVE ( 'NONE', #256, #248, #195, .T. ) ;
#256 = VERTEX_POINT ( 'NONE', #186 ) ;
#257 = ORIENTED_EDGE ( 'NONE', *, *, #258, .F. ) ;
#258 = EDGE_CURVE ( 'NONE', #221, #256, #184, .T. ) ;
#259 = ADVANCED_FACE ( 'NONE', ( #180 ), #210, .T. ) ;
#260 = EDGE_LOOP ( 'NONE', ( #261, #232, #235, #250 ) ) ;
#261 = ORIENTED_EDGE ( 'NONE', *, *, #247, .T. ) ;
ENDSEC;
END-ISO-10303-21;
