ISO-10303-21;
HEADER;
FILE_DESCRIPTION (( 'STEP AP203' ),
    '1' );
FILE_NAME ('Web Model 14959_14959.step',
    '2020-07-27T18:32:56',
    ( '' ),
    ( '' ),
    'SwSTEP 2.0',
    'SolidWorks 2018',
    '' );
FILE_SCHEMA (( 'CONFIG_CONTROL_DESIGN' ));
ENDSEC;

DATA;
#1 = CARTESIAN_POINT ( 'NONE',  ( 1.500000000000000000, 0.0000000000000000000, 0.0000000000000000000 ) ) ;
#2 = EDGE_CURVE ( 'NONE', #72, #18, #121, .T. ) ;
#3 = PERSON_AND_ORGANIZATION_ROLE ( 'design_owner' ) ;
#4 = DATE_AND_TIME ( #10, #46 ) ;
#5 = LINE ( 'NONE', #157, #109 ) ;
#6 = PERSON_AND_ORGANIZATION_ROLE ( 'creator' ) ;
#7 = ORIENTED_EDGE ( 'NONE', *, *, #141, .T. ) ;
#8 = CC_DESIGN_PERSON_AND_ORGANIZATION_ASSIGNMENT ( #111, #17, ( #74 ) ) ;
#9 = PRODUCT ( 'Web Model 14959_14959', 'Web Model 14959_14959', '', ( #166 ) ) ;
#10 = CALENDAR_DATE ( 2020, 27, 7 ) ;
#11 = CYLINDRICAL_SURFACE ( 'NONE', #125, 6.250000000000000000 ) ;
#12 = ORIENTED_EDGE ( 'NONE', *, *, #154, .T. ) ;
#13 = DIRECTION ( 'NONE',  ( 1.000000000000000000, 0.0000000000000000000, 0.0000000000000000000 ) ) ;
#14 = CARTESIAN_POINT ( 'NONE',  ( -1.500000000000000000, 0.0000000000000000000, 0.0000000000000000000 ) ) ;
#15 = DIRECTION ( 'NONE',  ( 0.0000000000000000000, 0.0000000000000000000, 1.000000000000000000 ) ) ;
#16 = CC_DESIGN_SECURITY_CLASSIFICATION ( #37, ( #74 ) ) ;
#17 = PERSON_AND_ORGANIZATION_ROLE ( 'design_supplier' ) ;
#18 = VERTEX_POINT ( 'NONE', #156 ) ;
#19 = CC_DESIGN_APPROVAL ( #101, ( #74 ) ) ;
#20 = PERSON_AND_ORGANIZATION ( #67, #23 ) ;
#21 = CLOSED_SHELL ( 'NONE', ( #35, #139, #150, #34 ) ) ;
#22 = APPROVAL_DATE_TIME ( #4, #101 ) ;
#23 = ORGANIZATION ( 'UNSPECIFIED', 'UNSPECIFIED', '' ) ;
#24 = VERTEX_POINT ( 'NONE', #174 ) ;
#25 = VECTOR ( 'NONE', #32, 1000.000000000000000 ) ;
#26 = PRODUCT_DEFINITION ( 'UNKNOWN', '', #74, #113 ) ;
#27 = DIRECTION ( 'NONE',  ( 0.0000000000000000000, 0.0000000000000000000, -1.000000000000000000 ) ) ;
#28 = FACE_OUTER_BOUND ( 'NONE', #92, .T. ) ;
#29 = DIRECTION ( 'NONE',  ( 0.0000000000000000000, 0.0000000000000000000, -1.000000000000000000 ) ) ;
#30 = AXIS2_PLACEMENT_3D ( 'NONE', #159, #58, #97 ) ;
#31 = ORIENTED_EDGE ( 'NONE', *, *, #172, .F. ) ;
#32 = DIRECTION ( 'NONE',  ( -1.000000000000000000, -0.0000000000000000000, -0.0000000000000000000 ) ) ;
#33 = APPROVAL_PERSON_ORGANIZATION ( #70, #101, #147 ) ;
#34 = ADVANCED_FACE ( 'NONE', ( #79 ), #50, .F. ) ;
#35 = ADVANCED_FACE ( 'NONE', ( #71 ), #11, .T. ) ;
#36 = LOCAL_TIME ( 14, 32, 56.00000000000000000, #145 ) ;
#37 = SECURITY_CLASSIFICATION ( '', '', #117 ) ;
#38 = CC_DESIGN_APPROVAL ( #63, ( #26 ) ) ;
#39 = AXIS2_PLACEMENT_3D ( 'NONE', #126, #13, #43 ) ;
#40 = CALENDAR_DATE ( 2020, 27, 7 ) ;
#41 = DIRECTION ( 'NONE',  ( 0.0000000000000000000, 0.0000000000000000000, -1.000000000000000000 ) ) ;
#42 = CARTESIAN_POINT ( 'NONE',  ( 1.500000000000000000, 0.0000000000000000000, 6.250000000000000000 ) ) ;
#43 = DIRECTION ( 'NONE',  ( 0.0000000000000000000, 0.0000000000000000000, -1.000000000000000000 ) ) ;
#44 = DIRECTION ( 'NONE',  ( -1.000000000000000000, -0.0000000000000000000, -0.0000000000000000000 ) ) ;
#45 = LOCAL_TIME ( 14, 32, 56.00000000000000000, #120 ) ;
#46 = LOCAL_TIME ( 14, 32, 56.00000000000000000, #96 ) ;
#47 = APPROVAL ( #118, 'UNSPECIFIED' ) ;
#48 =( GEOMETRIC_REPRESENTATION_CONTEXT ( 3 ) GLOBAL_UNCERTAINTY_ASSIGNED_CONTEXT ( ( #90 ) ) GLOBAL_UNIT_ASSIGNED_CONTEXT ( ( #146, #64, #164 ) ) REPRESENTATION_CONTEXT ( 'NONE', 'WORKASPACE' ) );
#49 = AXIS2_PLACEMENT_3D ( 'NONE', #81, #82, #143 ) ;
#50 = PLANE ( 'NONE',  #106 ) ;
#51 = APPROVAL_PERSON_ORGANIZATION ( #93, #63, #162 ) ;
#52 = CC_DESIGN_PERSON_AND_ORGANIZATION_ASSIGNMENT ( #144, #6, ( #74 ) ) ;
#53 = PERSON_AND_ORGANIZATION ( #67, #23 ) ;
#54 = DIRECTION ( 'NONE',  ( 0.0000000000000000000, 0.0000000000000000000, -1.000000000000000000 ) ) ;
#55 = CARTESIAN_POINT ( 'NONE',  ( 1.500000000000000000, 0.0000000000000000000, 0.0000000000000000000 ) ) ;
#56 = PLANE ( 'NONE',  #175 ) ;
#57 = AXIS2_PLACEMENT_3D ( 'NONE', #128, #155, #41 ) ;
#58 = DIRECTION ( 'NONE',  ( -1.000000000000000000, -0.0000000000000000000, -0.0000000000000000000 ) ) ;
#59 = COORDINATED_UNIVERSAL_TIME_OFFSET ( 5, 0, .BEHIND. ) ;
#60 = CC_DESIGN_PERSON_AND_ORGANIZATION_ASSIGNMENT ( #168, #62, ( #26 ) ) ;
#61 = CARTESIAN_POINT ( 'NONE',  ( -1.500000000000000000, 0.0000000000000000000, 6.250000000000000000 ) ) ;
#62 = PERSON_AND_ORGANIZATION_ROLE ( 'creator' ) ;
#63 = APPROVAL ( #137, 'UNSPECIFIED' ) ;
#64 =( NAMED_UNIT ( * ) PLANE_ANGLE_UNIT ( ) SI_UNIT ( $, .RADIAN. ) );
#65 = CIRCLE ( 'NONE', #169, 6.250000000000000000 ) ;
#66 = ORIENTED_EDGE ( 'NONE', *, *, #108, .T. ) ;
#67 = PERSON ( 'UNSPECIFIED', 'UNSPECIFIED', 'UNSPECIFIED', ('UNSPECIFIED'), ('UNSPECIFIED'), ('UNSPECIFIED') ) ;
#68 = CC_DESIGN_PERSON_AND_ORGANIZATION_ASSIGNMENT ( #105, #3, ( #9 ) ) ;
#69 = APPROVAL_DATE_TIME ( #110, #47 ) ;
#70 = PERSON_AND_ORGANIZATION ( #67, #23 ) ;
#71 = FACE_OUTER_BOUND ( 'NONE', #158, .T. ) ;
#72 = VERTEX_POINT ( 'NONE', #116 ) ;
#73 = FACE_OUTER_BOUND ( 'NONE', #173, .T. ) ;
#74 = PRODUCT_DEFINITION_FORMATION_WITH_SPECIFIED_SOURCE ( 'ANY', '', #9, .NOT_KNOWN. ) ;
#75 = DATE_TIME_ROLE ( 'creation_date' ) ;
#76 = APPLICATION_PROTOCOL_DEFINITION ( 'international standard', 'config_control_design', 1994, #136 ) ;
#77 = CALENDAR_DATE ( 2020, 27, 7 ) ;
#78 = CC_DESIGN_PERSON_AND_ORGANIZATION_ASSIGNMENT ( #53, #102, ( #37 ) ) ;
#79 = FACE_OUTER_BOUND ( 'NONE', #104, .T. ) ;
#80 = PRODUCT_RELATED_PRODUCT_CATEGORY ( 'detail', '', ( #9 ) ) ;
#81 = CARTESIAN_POINT ( 'NONE',  ( 0.0000000000000000000, 0.0000000000000000000, 0.0000000000000000000 ) ) ;
#82 = DIRECTION ( 'NONE',  ( 0.0000000000000000000, 0.0000000000000000000, 1.000000000000000000 ) ) ;
#83 = AXIS2_PLACEMENT_3D ( 'NONE', #95, #114, #138 ) ;
#84 = APPLICATION_PROTOCOL_DEFINITION ( 'international standard', 'config_control_design', 1994, #103 ) ;
#85 = ORIENTED_EDGE ( 'NONE', *, *, #141, .F. ) ;
#86 = CC_DESIGN_DATE_AND_TIME_ASSIGNMENT ( #119, #161, ( #37 ) ) ;
#87 = APPROVAL_STATUS ( 'not_yet_approved' ) ;
#88 = APPROVAL_PERSON_ORGANIZATION ( #20, #47, #130 ) ;
#89 = ADVANCED_BREP_SHAPE_REPRESENTATION ( 'Web Model 14959_14959', ( #151, #49 ), #48 ) ;
#90 = UNCERTAINTY_MEASURE_WITH_UNIT (LENGTH_MEASURE( 1.000000000000000082E-05 ), #146, 'distance_accuracy_value', 'NONE');
#91 = CIRCLE ( 'NONE', #83, 6.250000000000000000 ) ;
#92 = EDGE_LOOP ( 'NONE', ( #131, #142, #66, #124 ) ) ;
#93 = PERSON_AND_ORGANIZATION ( #67, #23 ) ;
#94 = ORIENTED_EDGE ( 'NONE', *, *, #163, .F. ) ;
#95 = CARTESIAN_POINT ( 'NONE',  ( -1.500000000000000000, 0.0000000000000000000, 0.0000000000000000000 ) ) ;
#96 = COORDINATED_UNIVERSAL_TIME_OFFSET ( 5, 0, .BEHIND. ) ;
#97 = DIRECTION ( 'NONE',  ( 0.0000000000000000000, 0.0000000000000000000, 1.000000000000000000 ) ) ;
#98 = DIRECTION ( 'NONE',  ( 1.000000000000000000, 0.0000000000000000000, 0.0000000000000000000 ) ) ;
#99 = PRODUCT_DEFINITION_SHAPE ( 'NONE', 'NONE',  #26 ) ;
#100 = CARTESIAN_POINT ( 'NONE',  ( -1.500000000000000000, 0.0000000000000000000, 0.0000000000000000000 ) ) ;
#101 = APPROVAL ( #87, 'UNSPECIFIED' ) ;
#102 = PERSON_AND_ORGANIZATION_ROLE ( 'classification_officer' ) ;
#103 = APPLICATION_CONTEXT ( 'configuration controlled 3d designs of mechanical parts and assemblies' ) ;
#104 = EDGE_LOOP ( 'NONE', ( #31, #94 ) ) ;
#105 = PERSON_AND_ORGANIZATION ( #67, #23 ) ;
#106 = AXIS2_PLACEMENT_3D ( 'NONE', #14, #115, #29 ) ;
#107 = CC_DESIGN_APPROVAL ( #47, ( #37 ) ) ;
#108 = EDGE_CURVE ( 'NONE', #72, #167, #129, .T. ) ;
#109 = VECTOR ( 'NONE', #44, 1000.000000000000000 ) ;
#110 = DATE_AND_TIME ( #134, #152 ) ;
#111 = PERSON_AND_ORGANIZATION ( #67, #23 ) ;
#112 = DIRECTION ( 'NONE',  ( 1.000000000000000000, 0.0000000000000000000, 0.0000000000000000000 ) ) ;
#113 = DESIGN_CONTEXT ( 'detailed design', #136, 'design' ) ;
#114 = DIRECTION ( 'NONE',  ( 1.000000000000000000, 0.0000000000000000000, 0.0000000000000000000 ) ) ;
#115 = DIRECTION ( 'NONE',  ( 1.000000000000000000, 0.0000000000000000000, 0.0000000000000000000 ) ) ;
#116 = CARTESIAN_POINT ( 'NONE',  ( 1.500000000000000000, 0.0000000000000000000, 6.250000000000000000 ) ) ;
#117 = SECURITY_CLASSIFICATION_LEVEL ( 'unclassified' ) ;
#118 = APPROVAL_STATUS ( 'not_yet_approved' ) ;
#119 = DATE_AND_TIME ( #140, #45 ) ;
#120 = COORDINATED_UNIVERSAL_TIME_OFFSET ( 5, 0, .BEHIND. ) ;
#121 = CIRCLE ( 'NONE', #39, 6.250000000000000000 ) ;
#122 = CC_DESIGN_DATE_AND_TIME_ASSIGNMENT ( #170, #75, ( #26 ) ) ;
#123 = LOCAL_TIME ( 14, 32, 56.00000000000000000, #149 ) ;
#124 = ORIENTED_EDGE ( 'NONE', *, *, #172, .T. ) ;
#125 = AXIS2_PLACEMENT_3D ( 'NONE', #55, #135, #15 ) ;
#126 = CARTESIAN_POINT ( 'NONE',  ( 1.500000000000000000, 0.0000000000000000000, 0.0000000000000000000 ) ) ;
#127 = SHAPE_DEFINITION_REPRESENTATION ( #99, #89 ) ;
#128 = CARTESIAN_POINT ( 'NONE',  ( 1.500000000000000000, 0.0000000000000000000, 0.0000000000000000000 ) ) ;
#129 = LINE ( 'NONE', #42, #25 ) ;
#130 = APPROVAL_ROLE ( '' ) ;
#131 = ORIENTED_EDGE ( 'NONE', *, *, #154, .F. ) ;
#132 = ORIENTED_EDGE ( 'NONE', *, *, #2, .T. ) ;
#133 = ORIENTED_EDGE ( 'NONE', *, *, #108, .F. ) ;
#134 = CALENDAR_DATE ( 2020, 27, 7 ) ;
#135 = DIRECTION ( 'NONE',  ( -1.000000000000000000, -0.0000000000000000000, -0.0000000000000000000 ) ) ;
#136 = APPLICATION_CONTEXT ( 'configuration controlled 3d designs of mechanical parts and assemblies' ) ;
#137 = APPROVAL_STATUS ( 'not_yet_approved' ) ;
#138 = DIRECTION ( 'NONE',  ( 0.0000000000000000000, 0.0000000000000000000, -1.000000000000000000 ) ) ;
#139 = ADVANCED_FACE ( 'NONE', ( #28 ), #160, .T. ) ;
#140 = CALENDAR_DATE ( 2020, 27, 7 ) ;
#141 = EDGE_CURVE ( 'NONE', #18, #72, #165, .T. ) ;
#142 = ORIENTED_EDGE ( 'NONE', *, *, #2, .F. ) ;
#143 = DIRECTION ( 'NONE',  ( 1.000000000000000000, 0.0000000000000000000, 0.0000000000000000000 ) ) ;
#144 = PERSON_AND_ORGANIZATION ( #67, #23 ) ;
#145 = COORDINATED_UNIVERSAL_TIME_OFFSET ( 5, 0, .BEHIND. ) ;
#146 =( LENGTH_UNIT ( ) NAMED_UNIT ( * ) SI_UNIT ( .MILLI., .METRE. ) );
#147 = APPROVAL_ROLE ( '' ) ;
#148 = ORIENTED_EDGE ( 'NONE', *, *, #163, .T. ) ;
#149 = COORDINATED_UNIVERSAL_TIME_OFFSET ( 5, 0, .BEHIND. ) ;
#150 = ADVANCED_FACE ( 'NONE', ( #73 ), #56, .T. ) ;
#151 = MANIFOLD_SOLID_BREP ( 'Boss-Extrude1', #21 ) ;
#152 = LOCAL_TIME ( 14, 32, 56.00000000000000000, #59 ) ;
#153 = APPROVAL_DATE_TIME ( #171, #63 ) ;
#154 = EDGE_CURVE ( 'NONE', #18, #24, #5, .T. ) ;
#155 = DIRECTION ( 'NONE',  ( 1.000000000000000000, 0.0000000000000000000, 0.0000000000000000000 ) ) ;
#156 = CARTESIAN_POINT ( 'NONE',  ( 1.500000000000000000, 7.654042494670957606E-16, -6.250000000000000000 ) ) ;
#157 = CARTESIAN_POINT ( 'NONE',  ( 1.500000000000000000, 7.654042494670957606E-16, -6.250000000000000000 ) ) ;
#158 = EDGE_LOOP ( 'NONE', ( #85, #12, #148, #133 ) ) ;
#159 = CARTESIAN_POINT ( 'NONE',  ( 1.500000000000000000, 0.0000000000000000000, 0.0000000000000000000 ) ) ;
#160 = CYLINDRICAL_SURFACE ( 'NONE', #30, 6.250000000000000000 ) ;
#161 = DATE_TIME_ROLE ( 'classification_date' ) ;
#162 = APPROVAL_ROLE ( '' ) ;
#163 = EDGE_CURVE ( 'NONE', #24, #167, #65, .T. ) ;
#164 =( NAMED_UNIT ( * ) SI_UNIT ( $, .STERADIAN. ) SOLID_ANGLE_UNIT ( ) );
#165 = CIRCLE ( 'NONE', #57, 6.250000000000000000 ) ;
#166 = MECHANICAL_CONTEXT ( 'NONE', #103, 'mechanical' ) ;
#167 = VERTEX_POINT ( 'NONE', #61 ) ;
#168 = PERSON_AND_ORGANIZATION ( #67, #23 ) ;
#169 = AXIS2_PLACEMENT_3D ( 'NONE', #100, #112, #27 ) ;
#170 = DATE_AND_TIME ( #77, #36 ) ;
#171 = DATE_AND_TIME ( #40, #123 ) ;
#172 = EDGE_CURVE ( 'NONE', #167, #24, #91, .T. ) ;
#173 = EDGE_LOOP ( 'NONE', ( #132, #7 ) ) ;
#174 = CARTESIAN_POINT ( 'NONE',  ( -1.500000000000000000, 7.654042494670957606E-16, -6.250000000000000000 ) ) ;
#175 = AXIS2_PLACEMENT_3D ( 'NONE', #1, #98, #54 ) ;
ENDSEC;
END-ISO-10303-21;
