ISO-10303-21;
HEADER;
FILE_DESCRIPTION (( 'STEP AP203' ),
    '1' );
FILE_NAME ('Web Model 39286_39286.step',
    '2018-10-09T13:35:07',
    ( '' ),
    ( '' ),
    'SwSTEP 2.0',
    'SolidWorks 2016',
    '' );
FILE_SCHEMA (( 'CONFIG_CONTROL_DESIGN' ));
ENDSEC;

DATA;
#1 = CC_DESIGN_APPROVAL ( #132, ( #112 ) ) ;
#2 = DIRECTION ( 'NONE',  ( 0.0000000000000000000, 0.0000000000000000000, 1.000000000000000000 ) ) ;
#3 = APPROVAL_ROLE ( '' ) ;
#4 = COORDINATED_UNIVERSAL_TIME_OFFSET ( 5, 0, .BEHIND. ) ;
#5 = ORIENTED_EDGE ( 'NONE', *, *, #74, .F. ) ;
#6 = ADVANCED_BREP_SHAPE_REPRESENTATION ( 'Web Model 39286_39286', ( #96, #72 ), #163 ) ;
#7 = EDGE_CURVE ( 'NONE', #41, #46, #133, .T. ) ;
#8 = VERTEX_POINT ( 'NONE', #119 ) ;
#9 = ORIENTED_EDGE ( 'NONE', *, *, #21, .F. ) ;
#10 = EDGE_LOOP ( 'NONE', ( #100, #88 ) ) ;
#11 = DIRECTION ( 'NONE',  ( 0.0000000000000000000, 0.0000000000000000000, 1.000000000000000000 ) ) ;
#12 = APPROVAL ( #129, 'UNSPECIFIED' ) ;
#13 = DIRECTION ( 'NONE',  ( 0.0000000000000000000, 0.0000000000000000000, 1.000000000000000000 ) ) ;
#14 = LOCAL_TIME ( 9, 35, 7.000000000000000000, #4 ) ;
#15 =( NAMED_UNIT ( * ) SI_UNIT ( $, .STERADIAN. ) SOLID_ANGLE_UNIT ( ) );
#16 = CARTESIAN_POINT ( 'NONE',  ( 44.45000000000001000, 5.443555022209986500E-015, -1.500000000000000000 ) ) ;
#17 = CIRCLE ( 'NONE', #32, 44.45000000000001000 ) ;
#18 = AXIS2_PLACEMENT_3D ( 'NONE', #164, #24, #92 ) ;
#19 = FACE_OUTER_BOUND ( 'NONE', #68, .T. ) ;
#20 = APPROVAL_DATE_TIME ( #75, #146 ) ;
#21 = EDGE_CURVE ( 'NONE', #46, #8, #152, .T. ) ;
#22 = APPLICATION_CONTEXT ( 'configuration controlled 3d designs of mechanical parts and assemblies' ) ;
#23 = APPROVAL_DATE_TIME ( #50, #132 ) ;
#24 = DIRECTION ( 'NONE',  ( -0.0000000000000000000, -0.0000000000000000000, -1.000000000000000000 ) ) ;
#25 = APPLICATION_PROTOCOL_DEFINITION ( 'international standard', 'config_control_design', 1994, #22 ) ;
#26 = APPROVAL_STATUS ( 'not_yet_approved' ) ;
#27 = CC_DESIGN_APPROVAL ( #146, ( #51 ) ) ;
#28 = APPROVAL_ROLE ( '' ) ;
#29 = VECTOR ( 'NONE', #52, 1000.000000000000000 ) ;
#30 = CC_DESIGN_PERSON_AND_ORGANIZATION_ASSIGNMENT ( #77, #125, ( #48 ) ) ;
#31 = DATE_AND_TIME ( #172, #154 ) ;
#32 = AXIS2_PLACEMENT_3D ( 'NONE', #40, #2, #108 ) ;
#33 = COORDINATED_UNIVERSAL_TIME_OFFSET ( 5, 0, .BEHIND. ) ;
#34 = FACE_OUTER_BOUND ( 'NONE', #134, .T. ) ;
#35 = CC_DESIGN_PERSON_AND_ORGANIZATION_ASSIGNMENT ( #124, #80, ( #159 ) ) ;
#36 = CARTESIAN_POINT ( 'NONE',  ( 0.0000000000000000000, 0.0000000000000000000, 1.500000000000000000 ) ) ;
#37 = DIRECTION ( 'NONE',  ( 0.0000000000000000000, 0.0000000000000000000, 1.000000000000000000 ) ) ;
#38 = CARTESIAN_POINT ( 'NONE',  ( 0.0000000000000000000, 0.0000000000000000000, -1.500000000000000000 ) ) ;
#39 = COORDINATED_UNIVERSAL_TIME_OFFSET ( 5, 0, .BEHIND. ) ;
#40 = CARTESIAN_POINT ( 'NONE',  ( 0.0000000000000000000, 0.0000000000000000000, 1.500000000000000000 ) ) ;
#41 = VERTEX_POINT ( 'NONE', #105 ) ;
#42 = SECURITY_CLASSIFICATION_LEVEL ( 'unclassified' ) ;
#43 = CC_DESIGN_PERSON_AND_ORGANIZATION_ASSIGNMENT ( #87, #128, ( #112 ) ) ;
#44 = FACE_OUTER_BOUND ( 'NONE', #116, .T. ) ;
#45 = COORDINATED_UNIVERSAL_TIME_OFFSET ( 5, 0, .BEHIND. ) ;
#46 = VERTEX_POINT ( 'NONE', #70 ) ;
#47 = CC_DESIGN_DATE_AND_TIME_ASSIGNMENT ( #93, #113, ( #159 ) ) ;
#48 = PRODUCT ( 'Web Model 39286_39286', 'Web Model 39286_39286', '', ( #168 ) ) ;
#49 = ORIENTED_EDGE ( 'NONE', *, *, #74, .T. ) ;
#50 = DATE_AND_TIME ( #171, #145 ) ;
#51 = PRODUCT_DEFINITION_FORMATION_WITH_SPECIFIED_SOURCE ( 'ANY', '', #48, .NOT_KNOWN. ) ;
#52 = DIRECTION ( 'NONE',  ( -0.0000000000000000000, -0.0000000000000000000, -1.000000000000000000 ) ) ;
#53 = CARTESIAN_POINT ( 'NONE',  ( 0.0000000000000000000, 0.0000000000000000000, -1.500000000000000000 ) ) ;
#54 = DIRECTION ( 'NONE',  ( -0.0000000000000000000, -0.0000000000000000000, -1.000000000000000000 ) ) ;
#55 = COORDINATED_UNIVERSAL_TIME_OFFSET ( 5, 0, .BEHIND. ) ;
#56 = DIRECTION ( 'NONE',  ( 1.000000000000000000, 0.0000000000000000000, -0.0000000000000000000 ) ) ;
#57 = CARTESIAN_POINT ( 'NONE',  ( 0.0000000000000000000, 0.0000000000000000000, 1.500000000000000000 ) ) ;
#58 = CC_DESIGN_SECURITY_CLASSIFICATION ( #159, ( #51 ) ) ;
#59 = DIRECTION ( 'NONE',  ( 1.000000000000000000, 0.0000000000000000000, -0.0000000000000000000 ) ) ;
#60 = CYLINDRICAL_SURFACE ( 'NONE', #18, 44.45000000000001000 ) ;
#61 = APPROVAL_DATE_TIME ( #97, #12 ) ;
#62 = ADVANCED_FACE ( 'NONE', ( #34 ), #60, .T. ) ;
#63 = PRODUCT_DEFINITION_SHAPE ( 'NONE', 'NONE',  #112 ) ;
#64 = CC_DESIGN_PERSON_AND_ORGANIZATION_ASSIGNMENT ( #102, #71, ( #51 ) ) ;
#65 = PERSON_AND_ORGANIZATION ( #118, #89 ) ;
#66 = ADVANCED_FACE ( 'NONE', ( #44 ), #136, .T. ) ;
#67 = EDGE_CURVE ( 'NONE', #46, #41, #17, .T. ) ;
#68 = EDGE_LOOP ( 'NONE', ( #5, #110 ) ) ;
#69 = APPROVAL_STATUS ( 'not_yet_approved' ) ;
#70 = CARTESIAN_POINT ( 'NONE',  ( -44.45000000000001000, 0.0000000000000000000, 1.500000000000000000 ) ) ;
#71 = PERSON_AND_ORGANIZATION_ROLE ( 'creator' ) ;
#72 = AXIS2_PLACEMENT_3D ( 'NONE', #127, #13, #107 ) ;
#73 = ORIENTED_EDGE ( 'NONE', *, *, #21, .T. ) ;
#74 = EDGE_CURVE ( 'NONE', #8, #151, #158, .T. ) ;
#75 = DATE_AND_TIME ( #114, #139 ) ;
#76 = APPROVAL_PERSON_ORGANIZATION ( #131, #146, #155 ) ;
#77 = PERSON_AND_ORGANIZATION ( #118, #89 ) ;
#78 = AXIS2_PLACEMENT_3D ( 'NONE', #174, #11, #120 ) ;
#79 = ORIENTED_EDGE ( 'NONE', *, *, #148, .T. ) ;
#80 = PERSON_AND_ORGANIZATION_ROLE ( 'classification_officer' ) ;
#81 = UNCERTAINTY_MEASURE_WITH_UNIT (LENGTH_MEASURE( 1.000000000000000100E-005 ), #94, 'distance_accuracy_value', 'NONE');
#82 = PLANE ( 'NONE',  #86 ) ;
#83 = DIRECTION ( 'NONE',  ( 0.0000000000000000000, 0.0000000000000000000, 1.000000000000000000 ) ) ;
#84 = ORIENTED_EDGE ( 'NONE', *, *, #149, .F. ) ;
#85 = PERSON_AND_ORGANIZATION_ROLE ( 'design_supplier' ) ;
#86 = AXIS2_PLACEMENT_3D ( 'NONE', #57, #83, #56 ) ;
#87 = PERSON_AND_ORGANIZATION ( #118, #89 ) ;
#88 = ORIENTED_EDGE ( 'NONE', *, *, #7, .T. ) ;
#89 = ORGANIZATION ( 'UNSPECIFIED', 'UNSPECIFIED', '' ) ;
#90 = ADVANCED_FACE ( 'NONE', ( #19 ), #140, .F. ) ;
#91 = VECTOR ( 'NONE', #54, 1000.000000000000000 ) ;
#92 = DIRECTION ( 'NONE',  ( -1.000000000000000000, 0.0000000000000000000, 0.0000000000000000000 ) ) ;
#93 = DATE_AND_TIME ( #150, #99 ) ;
#94 =( LENGTH_UNIT ( ) NAMED_UNIT ( * ) SI_UNIT ( .MILLI., .METRE. ) );
#95 = DIRECTION ( 'NONE',  ( 0.0000000000000000000, 0.0000000000000000000, 1.000000000000000000 ) ) ;
#96 = MANIFOLD_SOLID_BREP ( 'Boss-Extrude1', #98 ) ;
#97 = DATE_AND_TIME ( #157, #14 ) ;
#98 = CLOSED_SHELL ( 'NONE', ( #62, #66, #160, #90 ) ) ;
#99 = LOCAL_TIME ( 9, 35, 7.000000000000000000, #33 ) ;
#100 = ORIENTED_EDGE ( 'NONE', *, *, #67, .T. ) ;
#101 = AXIS2_PLACEMENT_3D ( 'NONE', #121, #37, #111 ) ;
#102 = PERSON_AND_ORGANIZATION ( #118, #89 ) ;
#103 = APPROVAL_PERSON_ORGANIZATION ( #65, #12, #3 ) ;
#104 = PERSON_AND_ORGANIZATION ( #118, #89 ) ;
#105 = CARTESIAN_POINT ( 'NONE',  ( 44.45000000000001000, 5.443555022209986500E-015, 1.500000000000000000 ) ) ;
#106 = DIRECTION ( 'NONE',  ( 1.000000000000000000, 0.0000000000000000000, 0.0000000000000000000 ) ) ;
#107 = DIRECTION ( 'NONE',  ( 1.000000000000000000, 0.0000000000000000000, 0.0000000000000000000 ) ) ;
#108 = DIRECTION ( 'NONE',  ( 1.000000000000000000, 0.0000000000000000000, 0.0000000000000000000 ) ) ;
#109 = APPLICATION_PROTOCOL_DEFINITION ( 'international standard', 'config_control_design', 1994, #141 ) ;
#110 = ORIENTED_EDGE ( 'NONE', *, *, #148, .F. ) ;
#111 = DIRECTION ( 'NONE',  ( 1.000000000000000000, 0.0000000000000000000, 0.0000000000000000000 ) ) ;
#112 = PRODUCT_DEFINITION ( 'UNKNOWN', '', #51, #117 ) ;
#113 = DATE_TIME_ROLE ( 'classification_date' ) ;
#114 = CALENDAR_DATE ( 2018, 9, 10 ) ;
#115 = CC_DESIGN_DATE_AND_TIME_ASSIGNMENT ( #31, #144, ( #112 ) ) ;
#116 = EDGE_LOOP ( 'NONE', ( #84, #169, #73, #49 ) ) ;
#117 = DESIGN_CONTEXT ( 'detailed design', #141, 'design' ) ;
#118 = PERSON ( 'UNSPECIFIED', 'UNSPECIFIED', 'UNSPECIFIED', ('UNSPECIFIED'), ('UNSPECIFIED'), ('UNSPECIFIED') ) ;
#119 = CARTESIAN_POINT ( 'NONE',  ( -44.45000000000001000, 0.0000000000000000000, -1.500000000000000000 ) ) ;
#120 = DIRECTION ( 'NONE',  ( 1.000000000000000000, 0.0000000000000000000, 0.0000000000000000000 ) ) ;
#121 = CARTESIAN_POINT ( 'NONE',  ( 0.0000000000000000000, 0.0000000000000000000, -1.500000000000000000 ) ) ;
#122 = DIRECTION ( 'NONE',  ( -0.0000000000000000000, -0.0000000000000000000, -1.000000000000000000 ) ) ;
#123 = CC_DESIGN_PERSON_AND_ORGANIZATION_ASSIGNMENT ( #143, #85, ( #51 ) ) ;
#124 = PERSON_AND_ORGANIZATION ( #118, #89 ) ;
#125 = PERSON_AND_ORGANIZATION_ROLE ( 'design_owner' ) ;
#126 = CC_DESIGN_APPROVAL ( #12, ( #159 ) ) ;
#127 = CARTESIAN_POINT ( 'NONE',  ( 0.0000000000000000000, 0.0000000000000000000, 0.0000000000000000000 ) ) ;
#128 = PERSON_AND_ORGANIZATION_ROLE ( 'creator' ) ;
#129 = APPROVAL_STATUS ( 'not_yet_approved' ) ;
#130 = SHAPE_DEFINITION_REPRESENTATION ( #63, #6 ) ;
#131 = PERSON_AND_ORGANIZATION ( #118, #89 ) ;
#132 = APPROVAL ( #26, 'UNSPECIFIED' ) ;
#133 = CIRCLE ( 'NONE', #78, 44.45000000000001000 ) ;
#134 = EDGE_LOOP ( 'NONE', ( #156, #162, #79, #9 ) ) ;
#135 = AXIS2_PLACEMENT_3D ( 'NONE', #36, #122, #138 ) ;
#136 = CYLINDRICAL_SURFACE ( 'NONE', #135, 44.45000000000001000 ) ;
#137 = PRODUCT_RELATED_PRODUCT_CATEGORY ( 'detail', '', ( #48 ) ) ;
#138 = DIRECTION ( 'NONE',  ( -1.000000000000000000, 0.0000000000000000000, 0.0000000000000000000 ) ) ;
#139 = LOCAL_TIME ( 9, 35, 7.000000000000000000, #39 ) ;
#140 = PLANE ( 'NONE',  #161 ) ;
#141 = APPLICATION_CONTEXT ( 'configuration controlled 3d designs of mechanical parts and assemblies' ) ;
#142 = DIRECTION ( 'NONE',  ( 0.0000000000000000000, 0.0000000000000000000, 1.000000000000000000 ) ) ;
#143 = PERSON_AND_ORGANIZATION ( #118, #89 ) ;
#144 = DATE_TIME_ROLE ( 'creation_date' ) ;
#145 = LOCAL_TIME ( 9, 35, 7.000000000000000000, #55 ) ;
#146 = APPROVAL ( #69, 'UNSPECIFIED' ) ;
#147 = AXIS2_PLACEMENT_3D ( 'NONE', #53, #142, #106 ) ;
#148 = EDGE_CURVE ( 'NONE', #151, #8, #167, .T. ) ;
#149 = EDGE_CURVE ( 'NONE', #41, #151, #165, .T. ) ;
#150 = CALENDAR_DATE ( 2018, 9, 10 ) ;
#151 = VERTEX_POINT ( 'NONE', #16 ) ;
#152 = LINE ( 'NONE', #175, #29 ) ;
#153 =( NAMED_UNIT ( * ) PLANE_ANGLE_UNIT ( ) SI_UNIT ( $, .RADIAN. ) );
#154 = LOCAL_TIME ( 9, 35, 7.000000000000000000, #45 ) ;
#155 = APPROVAL_ROLE ( '' ) ;
#156 = ORIENTED_EDGE ( 'NONE', *, *, #7, .F. ) ;
#157 = CALENDAR_DATE ( 2018, 9, 10 ) ;
#158 = CIRCLE ( 'NONE', #101, 44.45000000000001000 ) ;
#159 = SECURITY_CLASSIFICATION ( '', '', #42 ) ;
#160 = ADVANCED_FACE ( 'NONE', ( #170 ), #82, .T. ) ;
#161 = AXIS2_PLACEMENT_3D ( 'NONE', #38, #95, #59 ) ;
#162 = ORIENTED_EDGE ( 'NONE', *, *, #149, .T. ) ;
#163 =( GEOMETRIC_REPRESENTATION_CONTEXT ( 3 ) GLOBAL_UNCERTAINTY_ASSIGNED_CONTEXT ( ( #81 ) ) GLOBAL_UNIT_ASSIGNED_CONTEXT ( ( #94, #153, #15 ) ) REPRESENTATION_CONTEXT ( 'NONE', 'WORKASPACE' ) );
#164 = CARTESIAN_POINT ( 'NONE',  ( 0.0000000000000000000, 0.0000000000000000000, 1.500000000000000000 ) ) ;
#165 = LINE ( 'NONE', #166, #91 ) ;
#166 = CARTESIAN_POINT ( 'NONE',  ( 44.45000000000001000, 5.443555022209986500E-015, 1.500000000000000000 ) ) ;
#167 = CIRCLE ( 'NONE', #147, 44.45000000000001000 ) ;
#168 = MECHANICAL_CONTEXT ( 'NONE', #22, 'mechanical' ) ;
#169 = ORIENTED_EDGE ( 'NONE', *, *, #67, .F. ) ;
#170 = FACE_OUTER_BOUND ( 'NONE', #10, .T. ) ;
#171 = CALENDAR_DATE ( 2018, 9, 10 ) ;
#172 = CALENDAR_DATE ( 2018, 9, 10 ) ;
#173 = APPROVAL_PERSON_ORGANIZATION ( #104, #132, #28 ) ;
#174 = CARTESIAN_POINT ( 'NONE',  ( 0.0000000000000000000, 0.0000000000000000000, 1.500000000000000000 ) ) ;
#175 = CARTESIAN_POINT ( 'NONE',  ( -44.45000000000001000, 0.0000000000000000000, 1.500000000000000000 ) ) ;
ENDSEC;
END-ISO-10303-21;
