ISO-10303-21;
HEADER;
FILE_DESCRIPTION (( 'STEP AP214' ),
    '1' );
FILE_NAME ('19318-E0W.STEP',
    '2009-12-21T17:02:04',
    ( ' ' ),
    ( ' ' ),
    'SwSTEP 2.0',
    'SolidWorks 2009',
    '' );
FILE_SCHEMA (( 'AUTOMOTIVE_DESIGN' ));
ENDSEC;

DATA;
#1 = EDGE_LOOP ( 'NONE', ( #43, #46, #35, #45, #26 ) ) ;
#2 = EDGE_CURVE ( 'NONE', #36, #32, #96, .T. ) ;
#3 = ORIENTED_EDGE ( 'NONE', *, *, #2, .F. ) ;
#4 = EDGE_LOOP ( 'NONE', ( #12, #5 ) ) ;
#5 = ORIENTED_EDGE ( 'NONE', *, *, #48, .F. ) ;
#6 = EDGE_LOOP ( 'NONE', ( #40, #29, #49, #10, #9 ) ) ;
#7 = EDGE_CURVE ( 'NONE', #42, #44, #91, .T. ) ;
#8 = ADVANCED_FACE ( 'NONE', ( #103 ), #69, .F. ) ;
#9 = ORIENTED_EDGE ( 'NONE', *, *, #28, .F. ) ;
#10 = ORIENTED_EDGE ( 'NONE', *, *, #51, .F. ) ;
#11 = CLOSED_SHELL ( 'NONE', ( #13, #41, #52, #47, #8 ) ) ;
#12 = ORIENTED_EDGE ( 'NONE', *, *, #37, .F. ) ;
#13 = ADVANCED_FACE ( 'NONE', ( #71 ), #83, .T. ) ;
#14 = MANIFOLD_SOLID_BREP ( 'NONE', #11 ) ;
#15 = PRESENTATION_LAYER_ASSIGNMENT (  '', '', ( #205 ) ) ;
#16 =( NAMED_UNIT ( * ) PLANE_ANGLE_UNIT ( ) SI_UNIT ( $, .RADIAN. ) );
#17 = MECHANICAL_DESIGN_GEOMETRIC_PRESENTATION_REPRESENTATION (  '', ( #205 ), #221 ) ;
#18 =( LENGTH_UNIT ( ) NAMED_UNIT ( * ) SI_UNIT ( .MILLI., .METRE. ) );
#19 = EDGE_LOOP ( 'NONE', ( #39, #50, #27, #21 ) ) ;
#20 = ORIENTED_EDGE ( 'NONE', *, *, #22, .T. ) ;
#21 = ORIENTED_EDGE ( 'NONE', *, *, #2, .T. ) ;
#22 = EDGE_CURVE ( 'NONE', #53, #32, #150, .T. ) ;
#23 = VERTEX_POINT ( 'NONE', #148 ) ;
#24 = EDGE_CURVE ( 'NONE', #36, #23, #162, .T. ) ;
#25 = EDGE_LOOP ( 'NONE', ( #30, #33, #20, #3 ) ) ;
#26 = ORIENTED_EDGE ( 'NONE', *, *, #7, .F. ) ;
#27 = ORIENTED_EDGE ( 'NONE', *, *, #31, .T. ) ;
#28 = EDGE_CURVE ( 'NONE', #23, #53, #151, .T. ) ;
#29 = ORIENTED_EDGE ( 'NONE', *, *, #48, .T. ) ;
#30 = ORIENTED_EDGE ( 'NONE', *, *, #24, .T. ) ;
#31 = EDGE_CURVE ( 'NONE', #44, #36, #153, .T. ) ;
#32 = VERTEX_POINT ( 'NONE', #154 ) ;
#33 = ORIENTED_EDGE ( 'NONE', *, *, #28, .T. ) ;
#34 = EDGE_CURVE ( 'NONE', #38, #23, #133, .T. ) ;
#35 = ORIENTED_EDGE ( 'NONE', *, *, #24, .F. ) ;
#36 = VERTEX_POINT ( 'NONE', #146 ) ;
#37 = EDGE_CURVE ( 'NONE', #42, #38, #124, .T. ) ;
#38 = VERTEX_POINT ( 'NONE', #144 ) ;
#39 = ORIENTED_EDGE ( 'NONE', *, *, #22, .F. ) ;
#40 = ORIENTED_EDGE ( 'NONE', *, *, #34, .F. ) ;
#41 = ADVANCED_FACE ( 'NONE', ( #143 ), #197, .T. ) ;
#42 = VERTEX_POINT ( 'NONE', #198 ) ;
#43 = ORIENTED_EDGE ( 'NONE', *, *, #37, .T. ) ;
#44 = VERTEX_POINT ( 'NONE', #189 ) ;
#45 = ORIENTED_EDGE ( 'NONE', *, *, #31, .F. ) ;
#46 = ORIENTED_EDGE ( 'NONE', *, *, #34, .T. ) ;
#47 = ADVANCED_FACE ( 'NONE', ( #188 ), #199, .T. ) ;
#48 = EDGE_CURVE ( 'NONE', #38, #42, #182, .T. ) ;
#49 = ORIENTED_EDGE ( 'NONE', *, *, #7, .T. ) ;
#50 = ORIENTED_EDGE ( 'NONE', *, *, #51, .T. ) ;
#51 = EDGE_CURVE ( 'NONE', #53, #44, #186, .T. ) ;
#52 = ADVANCED_FACE ( 'NONE', ( #169 ), #236, .T. ) ;
#53 = VERTEX_POINT ( 'NONE', #235 ) ;
#54 = SURFACE_STYLE_USAGE ( .BOTH. , #55 ) ;
#55 = SURFACE_SIDE_STYLE ('',( #56 ) ) ;
#56 = SURFACE_STYLE_FILL_AREA ( #57 ) ;
#57 = FILL_AREA_STYLE ('',( #86 ) ) ;
#58 = DIRECTION ( 'NONE',  ( 1.000000000000000000, 0.0000000000000000000, 0.0000000000000000000 ) ) ;
#59 =( LENGTH_UNIT ( ) NAMED_UNIT ( * ) SI_UNIT ( .MILLI., .METRE. ) );
#60 =( LENGTH_UNIT ( ) NAMED_UNIT ( * ) SI_UNIT ( .MILLI., .METRE. ) );
#61 = PRESENTATION_LAYER_ASSIGNMENT (  '', '', ( #62 ) ) ;
#62 = STYLED_ITEM ( 'NONE', ( #108 ), #8 ) ;
#63 = FILL_AREA_STYLE_COLOUR ( '', #111 ) ;
#64 = AXIS2_PLACEMENT_3D ( 'NONE', #68, #67, #66 ) ;
#65 = MECHANICAL_DESIGN_GEOMETRIC_PRESENTATION_REPRESENTATION (  '', ( #75 ), #73 ) ;
#66 = DIRECTION ( 'NONE',  ( 1.000000000000000000, 0.0000000000000000000, 0.0000000000000000000 ) ) ;
#67 = DIRECTION ( 'NONE',  ( 0.0000000000000000000, -0.0000000000000000000, 1.000000000000000000 ) ) ;
#68 = CARTESIAN_POINT ( 'NONE',  ( 0.0000000000000000000, 4.243401159045579000E-016, -1.155000000000000000 ) ) ;
#69 = PLANE ( 'NONE',  #64 ) ;
#70 = COLOUR_RGB ( '',0.9568627450980391500, 0.9490196078431372100, 0.9607843137254902200 ) ;
#71 = FACE_OUTER_BOUND ( 'NONE', #1, .T. ) ;
#72 = DIRECTION ( 'NONE',  ( 1.000000000000000000, 0.0000000000000000000, 0.0000000000000000000 ) ) ;
#73 =( GEOMETRIC_REPRESENTATION_CONTEXT ( 3 ) GLOBAL_UNCERTAINTY_ASSIGNED_CONTEXT ( ( #97 ) ) GLOBAL_UNIT_ASSIGNED_CONTEXT ( ( #60, #99, #105 ) ) REPRESENTATION_CONTEXT ( 'NONE', 'WORKASPACE' ) );
#74 = PRESENTATION_LAYER_ASSIGNMENT (  '', '', ( #75 ) ) ;
#75 = STYLED_ITEM ( 'NONE', ( #92 ), #13 ) ;
#76 = UNCERTAINTY_MEASURE_WITH_UNIT (LENGTH_MEASURE( 1.000000000000000100E-005 ), #59, 'distance_accuracy_value', 'NONE');
#77 = DIRECTION ( 'NONE',  ( -0.0000000000000000000, -0.0000000000000000000, 1.000000000000000000 ) ) ;
#78 = VECTOR ( 'NONE', #77, 1000.000000000000000 ) ;
#79 =( NAMED_UNIT ( * ) PLANE_ANGLE_UNIT ( ) SI_UNIT ( $, .RADIAN. ) );
#80 = SURFACE_STYLE_FILL_AREA ( #81 ) ;
#81 = FILL_AREA_STYLE ('',( #82 ) ) ;
#82 = FILL_AREA_STYLE_COLOUR ( '', #70 ) ;
#83 = CYLINDRICAL_SURFACE ( 'NONE', #84, 15.00000000000000000 ) ;
#84 = AXIS2_PLACEMENT_3D ( 'NONE', #88, #87, #58 ) ;
#85 = COLOUR_RGB ( '',0.7960784313725489700, 0.8235294117647058400, 0.9372549019607843100 ) ;
#86 = FILL_AREA_STYLE_COLOUR ( '', #85 ) ;
#87 = DIRECTION ( 'NONE',  ( -0.0000000000000000000, -0.0000000000000000000, 1.000000000000000000 ) ) ;
#88 = CARTESIAN_POINT ( 'NONE',  ( 0.0000000000000000000, 0.0000000000000000000, 4.308132045400366600 ) ) ;
#89 =( GEOMETRIC_REPRESENTATION_CONTEXT ( 3 ) GLOBAL_UNCERTAINTY_ASSIGNED_CONTEXT ( ( #117 ) ) GLOBAL_UNIT_ASSIGNED_CONTEXT ( ( #95, #79, #118 ) ) REPRESENTATION_CONTEXT ( 'NONE', 'WORKASPACE' ) );
#90 = CARTESIAN_POINT ( 'NONE',  ( 15.00000000000000000, 0.0000000000000000000, 4.308132045400366600 ) ) ;
#91 = LINE ( 'NONE', #90, #78 ) ;
#92 = PRESENTATION_STYLE_ASSIGNMENT (( #93 ) ) ;
#93 = SURFACE_STYLE_USAGE ( .BOTH. , #94 ) ;
#94 = SURFACE_SIDE_STYLE ('',( #80 ) ) ;
#95 =( LENGTH_UNIT ( ) NAMED_UNIT ( * ) SI_UNIT ( .MILLI., .METRE. ) );
#96 = CIRCLE ( 'NONE', #107, 257.5400000000000200 ) ;
#97 = UNCERTAINTY_MEASURE_WITH_UNIT (LENGTH_MEASURE( 1.000000000000000100E-005 ), #60, 'distance_accuracy_value', 'NONE');
#98 = CARTESIAN_POINT ( 'NONE',  ( 0.0000000000000000000, 0.0000000000000000000, -256.3850000000000500 ) ) ;
#99 =( NAMED_UNIT ( * ) PLANE_ANGLE_UNIT ( ) SI_UNIT ( $, .RADIAN. ) );
#100 =( GEOMETRIC_REPRESENTATION_CONTEXT ( 3 ) GLOBAL_UNCERTAINTY_ASSIGNED_CONTEXT ( ( #76 ) ) GLOBAL_UNIT_ASSIGNED_CONTEXT ( ( #59, #119, #112 ) ) REPRESENTATION_CONTEXT ( 'NONE', 'WORKASPACE' ) );
#101 = DIRECTION ( 'NONE',  ( 0.0000000000000000000, 0.0000000000000000000, -1.000000000000000000 ) ) ;
#102 = FILL_AREA_STYLE ('',( #63 ) ) ;
#103 = FACE_OUTER_BOUND ( 'NONE', #4, .T. ) ;
#104 = SURFACE_STYLE_FILL_AREA ( #102 ) ;
#105 =( NAMED_UNIT ( * ) SI_UNIT ( $, .STERADIAN. ) SOLID_ANGLE_UNIT ( ) );
#106 = MECHANICAL_DESIGN_GEOMETRIC_PRESENTATION_REPRESENTATION (  '', ( #62 ), #100 ) ;
#107 = AXIS2_PLACEMENT_3D ( 'NONE', #98, #72, #101 ) ;
#108 = PRESENTATION_STYLE_ASSIGNMENT (( #109 ) ) ;
#109 = SURFACE_STYLE_USAGE ( .BOTH. , #110 ) ;
#110 = SURFACE_SIDE_STYLE ('',( #104 ) ) ;
#111 = COLOUR_RGB ( '',0.9568627450980391500, 0.9490196078431372100, 0.9607843137254902200 ) ;
#112 =( NAMED_UNIT ( * ) SI_UNIT ( $, .STERADIAN. ) SOLID_ANGLE_UNIT ( ) );
#113 = MECHANICAL_DESIGN_GEOMETRIC_PRESENTATION_REPRESENTATION (  '', ( #115 ), #89 ) ;
#114 = PRESENTATION_LAYER_ASSIGNMENT (  '', '', ( #115 ) ) ;
#115 = STYLED_ITEM ( 'NONE', ( #116 ), #14 ) ;
#116 = PRESENTATION_STYLE_ASSIGNMENT (( #54 ) ) ;
#117 = UNCERTAINTY_MEASURE_WITH_UNIT (LENGTH_MEASURE( 1.000000000000000100E-005 ), #95, 'distance_accuracy_value', 'NONE');
#118 =( NAMED_UNIT ( * ) SI_UNIT ( $, .STERADIAN. ) SOLID_ANGLE_UNIT ( ) );
#119 =( NAMED_UNIT ( * ) PLANE_ANGLE_UNIT ( ) SI_UNIT ( $, .RADIAN. ) );
#120 = AXIS2_PLACEMENT_3D ( 'NONE', #138, #141, #137 ) ;
#121 = DIRECTION ( 'NONE',  ( -0.0000000000000000000, -0.0000000000000000000, 1.000000000000000000 ) ) ;
#122 = CARTESIAN_POINT ( 'NONE',  ( 0.0000000000000000000, 0.0000000000000000000, -1.154999999999999800 ) ) ;
#123 = AXIS2_PLACEMENT_3D ( 'NONE', #122, #121, #145 ) ;
#124 = CIRCLE ( 'NONE', #123, 15.00000000000000000 ) ;
#125 = CARTESIAN_POINT ( 'NONE',  ( 0.0000000000000000000, 0.0000000000000000000, 0.7178035630883766700 ) ) ;
#126 = DIRECTION ( 'NONE',  ( -1.224606353822377300E-016, -1.000000000000000000, 0.0000000000000000000 ) ) ;
#127 = DIRECTION ( 'NONE',  ( -1.000000000000000000, 1.224606353822377300E-016, 0.0000000000000000000 ) ) ;
#128 = DIRECTION ( 'NONE',  ( -0.0000000000000000000, -0.0000000000000000000, 1.000000000000000000 ) ) ;
#129 = AXIS2_PLACEMENT_3D ( 'NONE', #157, #127, #126 ) ;
#130 = DIRECTION ( 'NONE',  ( -0.0000000000000000000, -0.0000000000000000000, 1.000000000000000000 ) ) ;
#131 = VECTOR ( 'NONE', #130, 1000.000000000000000 ) ;
#132 = CARTESIAN_POINT ( 'NONE',  ( -15.00000000000000000, 1.836909530733565900E-015, 4.308132045400366600 ) ) ;
#133 = LINE ( 'NONE', #132, #131 ) ;
#134 = CARTESIAN_POINT ( 'NONE',  ( 0.0000000000000000000, 0.0000000000000000000, 0.7178035630883766700 ) ) ;
#135 =( NAMED_UNIT ( * ) PLANE_ANGLE_UNIT ( ) SI_UNIT ( $, .RADIAN. ) );
#136 = DIRECTION ( 'NONE',  ( 1.000000000000000000, 0.0000000000000000000, 0.0000000000000000000 ) ) ;
#137 = DIRECTION ( 'NONE',  ( 1.000000000000000000, 0.0000000000000000000, 0.0000000000000000000 ) ) ;
#138 = CARTESIAN_POINT ( 'NONE',  ( 0.0000000000000000000, 0.0000000000000000000, 0.7178035630883766700 ) ) ;
#139 = UNCERTAINTY_MEASURE_WITH_UNIT (LENGTH_MEASURE( 1.000000000000000100E-005 ), #155, 'distance_accuracy_value', 'NONE');
#140 =( NAMED_UNIT ( * ) SI_UNIT ( $, .STERADIAN. ) SOLID_ANGLE_UNIT ( ) );
#141 = DIRECTION ( 'NONE',  ( -0.0000000000000000000, -0.0000000000000000000, 1.000000000000000000 ) ) ;
#142 = DIRECTION ( 'NONE',  ( 1.000000000000000000, 0.0000000000000000000, 0.0000000000000000000 ) ) ;
#143 = FACE_OUTER_BOUND ( 'NONE', #25, .T. ) ;
#144 = CARTESIAN_POINT ( 'NONE',  ( -15.00000000000000000, 1.836909530733565900E-015, -1.154999999999999800 ) ) ;
#145 = DIRECTION ( 'NONE',  ( 1.000000000000000000, 0.0000000000000000000, 0.0000000000000000000 ) ) ;
#146 = CARTESIAN_POINT ( 'NONE',  ( 0.0000000000000000000, 15.00000000000004800, 0.7178035630883735600 ) ) ;
#147 = DIRECTION ( 'NONE',  ( -0.0000000000000000000, -0.0000000000000000000, 1.000000000000000000 ) ) ;
#148 = CARTESIAN_POINT ( 'NONE',  ( -15.00000000000000400, 1.836909530733566300E-015, 0.7178035630883766700 ) ) ;
#149 = AXIS2_PLACEMENT_3D ( 'NONE', #125, #128, #142 ) ;
#150 = CIRCLE ( 'NONE', #129, 257.5400000000000200 ) ;
#151 = CIRCLE ( 'NONE', #149, 15.00000000000000200 ) ;
#152 = AXIS2_PLACEMENT_3D ( 'NONE', #134, #147, #136 ) ;
#153 = CIRCLE ( 'NONE', #120, 15.00000000000000200 ) ;
#154 = CARTESIAN_POINT ( 'NONE',  ( 0.0000000000000000000, 1.576925601817075500E-014, 1.155000000000017100 ) ) ;
#155 =( LENGTH_UNIT ( ) NAMED_UNIT ( * ) SI_UNIT ( .MILLI., .METRE. ) );
#156 = MECHANICAL_DESIGN_GEOMETRIC_PRESENTATION_REPRESENTATION (  '', ( #159 ), #214 ) ;
#157 = CARTESIAN_POINT ( 'NONE',  ( 0.0000000000000000000, 0.0000000000000000000, -256.3850000000000500 ) ) ;
#158 = PRESENTATION_LAYER_ASSIGNMENT (  '', '', ( #159 ) ) ;
#159 = STYLED_ITEM ( 'NONE', ( #160 ), #41 ) ;
#160 = PRESENTATION_STYLE_ASSIGNMENT (( #161 ) ) ;
#161 = SURFACE_STYLE_USAGE ( .BOTH. , #163 ) ;
#162 = CIRCLE ( 'NONE', #152, 15.00000000000000200 ) ;
#163 = SURFACE_SIDE_STYLE ('',( #164 ) ) ;
#164 = SURFACE_STYLE_FILL_AREA ( #165 ) ;
#165 = FILL_AREA_STYLE ('',( #166 ) ) ;
#166 = FILL_AREA_STYLE_COLOUR ( '', #167 ) ;
#167 = COLOUR_RGB ( '',0.9568627450980391500, 0.9490196078431372100, 0.9607843137254902200 ) ;
#168 = CARTESIAN_POINT ( 'NONE',  ( 0.0000000000000000000, 0.0000000000000000000, -256.3850000000000500 ) ) ;
#169 = FACE_OUTER_BOUND ( 'NONE', #19, .T. ) ;
#170 = DIRECTION ( 'NONE',  ( 0.0000000000000000000, 1.000000000000000000, 0.0000000000000000000 ) ) ;
#171 = DIRECTION ( 'NONE',  ( -1.000000000000000000, 0.0000000000000000000, 0.0000000000000000000 ) ) ;
#172 = AXIS2_PLACEMENT_3D ( 'NONE', #168, #171, #170 ) ;
#173 = CARTESIAN_POINT ( 'NONE',  ( 0.0000000000000000000, 0.0000000000000000000, 0.7178035630883766700 ) ) ;
#174 = DIRECTION ( 'NONE',  ( 1.000000000000000000, 0.0000000000000000000, 0.0000000000000000000 ) ) ;
#175 = PRESENTATION_STYLE_ASSIGNMENT (( #176 ) ) ;
#176 = SURFACE_STYLE_USAGE ( .BOTH. , #177 ) ;
#177 = SURFACE_SIDE_STYLE ('',( #191 ) ) ;
#178 = DIRECTION ( 'NONE',  ( 1.000000000000000000, 0.0000000000000000000, 0.0000000000000000000 ) ) ;
#179 = DIRECTION ( 'NONE',  ( -0.0000000000000000000, -0.0000000000000000000, 1.000000000000000000 ) ) ;
#180 = CARTESIAN_POINT ( 'NONE',  ( 0.0000000000000000000, 0.0000000000000000000, -1.154999999999999800 ) ) ;
#181 = AXIS2_PLACEMENT_3D ( 'NONE', #180, #179, #178 ) ;
#182 = CIRCLE ( 'NONE', #181, 15.00000000000000000 ) ;
#183 = DIRECTION ( 'NONE',  ( 1.000000000000000000, 0.0000000000000000000, 0.0000000000000000000 ) ) ;
#184 = DIRECTION ( 'NONE',  ( -0.0000000000000000000, -0.0000000000000000000, 1.000000000000000000 ) ) ;
#185 = AXIS2_PLACEMENT_3D ( 'NONE', #173, #184, #183 ) ;
#186 = CIRCLE ( 'NONE', #185, 15.00000000000000200 ) ;
#187 = COLOUR_RGB ( '',0.9568627450980391500, 0.9490196078431372100, 0.9607843137254902200 ) ;
#188 = FACE_OUTER_BOUND ( 'NONE', #6, .T. ) ;
#189 = CARTESIAN_POINT ( 'NONE',  ( 15.00000000000000400, 0.0000000000000000000, 0.7178035630883766700 ) ) ;
#190 = AXIS2_PLACEMENT_3D ( 'NONE', #203, #202, #174 ) ;
#191 = SURFACE_STYLE_FILL_AREA ( #192 ) ;
#192 = FILL_AREA_STYLE ('',( #193 ) ) ;
#193 = FILL_AREA_STYLE_COLOUR ( '', #187 ) ;
#194 = MECHANICAL_DESIGN_GEOMETRIC_PRESENTATION_REPRESENTATION (  '', ( #196 ), #200 ) ;
#195 = PRESENTATION_LAYER_ASSIGNMENT (  '', '', ( #196 ) ) ;
#196 = STYLED_ITEM ( 'NONE', ( #175 ), #47 ) ;
#197 = SPHERICAL_SURFACE ( 'NONE', #172, 257.5400000000000200 ) ;
#198 = CARTESIAN_POINT ( 'NONE',  ( 15.00000000000000000, 0.0000000000000000000, -1.154999999999999800 ) ) ;
#199 = CYLINDRICAL_SURFACE ( 'NONE', #190, 15.00000000000000000 ) ;
#200 =( GEOMETRIC_REPRESENTATION_CONTEXT ( 3 ) GLOBAL_UNCERTAINTY_ASSIGNED_CONTEXT ( ( #213 ) ) GLOBAL_UNIT_ASSIGNED_CONTEXT ( ( #204, #201, #215 ) ) REPRESENTATION_CONTEXT ( 'NONE', 'WORKASPACE' ) );
#201 =( NAMED_UNIT ( * ) PLANE_ANGLE_UNIT ( ) SI_UNIT ( $, .RADIAN. ) );
#202 = DIRECTION ( 'NONE',  ( -0.0000000000000000000, -0.0000000000000000000, 1.000000000000000000 ) ) ;
#203 = CARTESIAN_POINT ( 'NONE',  ( 0.0000000000000000000, 0.0000000000000000000, 4.308132045400366600 ) ) ;
#204 =( LENGTH_UNIT ( ) NAMED_UNIT ( * ) SI_UNIT ( .MILLI., .METRE. ) );
#205 = STYLED_ITEM ( 'NONE', ( #206 ), #52 ) ;
#206 = PRESENTATION_STYLE_ASSIGNMENT (( #207 ) ) ;
#207 = SURFACE_STYLE_USAGE ( .BOTH. , #208 ) ;
#208 = SURFACE_SIDE_STYLE ('',( #209 ) ) ;
#209 = SURFACE_STYLE_FILL_AREA ( #210 ) ;
#210 = FILL_AREA_STYLE ('',( #211 ) ) ;
#211 = FILL_AREA_STYLE_COLOUR ( '', #212 ) ;
#212 = COLOUR_RGB ( '',0.9568627450980391500, 0.9490196078431372100, 0.9607843137254902200 ) ;
#213 = UNCERTAINTY_MEASURE_WITH_UNIT (LENGTH_MEASURE( 1.000000000000000100E-005 ), #204, 'distance_accuracy_value', 'NONE');
#214 =( GEOMETRIC_REPRESENTATION_CONTEXT ( 3 ) GLOBAL_UNCERTAINTY_ASSIGNED_CONTEXT ( ( #139 ) ) GLOBAL_UNIT_ASSIGNED_CONTEXT ( ( #155, #135, #140 ) ) REPRESENTATION_CONTEXT ( 'NONE', 'WORKASPACE' ) );
#215 =( NAMED_UNIT ( * ) SI_UNIT ( $, .STERADIAN. ) SOLID_ANGLE_UNIT ( ) );
#216 =( NAMED_UNIT ( * ) SI_UNIT ( $, .STERADIAN. ) SOLID_ANGLE_UNIT ( ) );
#217 = SURFACE_STYLE_USAGE ( .BOTH. , #218 ) ;
#218 = SURFACE_SIDE_STYLE ('',( #219 ) ) ;
#219 = SURFACE_STYLE_FILL_AREA ( #220 ) ;
#220 = FILL_AREA_STYLE ('',( #238 ) ) ;
#221 =( GEOMETRIC_REPRESENTATION_CONTEXT ( 3 ) GLOBAL_UNCERTAINTY_ASSIGNED_CONTEXT ( ( #226 ) ) GLOBAL_UNIT_ASSIGNED_CONTEXT ( ( #18, #16, #216 ) ) REPRESENTATION_CONTEXT ( 'NONE', 'WORKASPACE' ) );
#222 = UNCERTAINTY_MEASURE_WITH_UNIT (LENGTH_MEASURE( 1.000000000000000100E-005 ), #223, 'distance_accuracy_value', 'NONE');
#223 =( LENGTH_UNIT ( ) NAMED_UNIT ( * ) SI_UNIT ( .MILLI., .METRE. ) );
#224 =( NAMED_UNIT ( * ) PLANE_ANGLE_UNIT ( ) SI_UNIT ( $, .RADIAN. ) );
#225 =( LENGTH_UNIT ( ) NAMED_UNIT ( * ) SI_UNIT ( .MILLI., .METRE. ) );
#226 = UNCERTAINTY_MEASURE_WITH_UNIT (LENGTH_MEASURE( 1.000000000000000100E-005 ), #18, 'distance_accuracy_value', 'NONE');
#227 = PRESENTATION_LAYER_ASSIGNMENT (  '', '', ( #228 ) ) ;
#228 = STYLED_ITEM ( 'NONE', ( #229 ), #234 ) ;
#229 = PRESENTATION_STYLE_ASSIGNMENT (( #217 ) ) ;
#230 =( NAMED_UNIT ( * ) SI_UNIT ( $, .STERADIAN. ) SOLID_ANGLE_UNIT ( ) );
#231 = CARTESIAN_POINT ( 'NONE',  ( 0.0000000000000000000, 0.0000000000000000000, 0.0000000000000000000 ) ) ;
#232 = DIRECTION ( 'NONE',  ( -1.000000000000000000, 0.0000000000000000000, 0.0000000000000000000 ) ) ;
#233 = AXIS2_PLACEMENT_3D ( 'NONE', #231, #245, #241 ) ;
#234 = ADVANCED_BREP_SHAPE_REPRESENTATION ( '19318-E0W', ( #14, #233 ), #247 ) ;
#235 = CARTESIAN_POINT ( 'NONE',  ( -1.836909530733571800E-015, -15.00000000000004800, 0.7178035630883735600 ) ) ;
#236 = SPHERICAL_SURFACE ( 'NONE', #246, 257.5400000000000200 ) ;
#237 = MECHANICAL_DESIGN_GEOMETRIC_PRESENTATION_REPRESENTATION (  '', ( #228 ), #242 ) ;
#238 = FILL_AREA_STYLE_COLOUR ( '', #239 ) ;
#239 = COLOUR_RGB ( '',0.7960784313725489700, 0.8235294117647058400, 0.9372549019607843100 ) ;
#240 =( NAMED_UNIT ( * ) PLANE_ANGLE_UNIT ( ) SI_UNIT ( $, .RADIAN. ) );
#241 = DIRECTION ( 'NONE',  ( 1.000000000000000000, 0.0000000000000000000, 0.0000000000000000000 ) ) ;
#242 =( GEOMETRIC_REPRESENTATION_CONTEXT ( 3 ) GLOBAL_UNCERTAINTY_ASSIGNED_CONTEXT ( ( #222 ) ) GLOBAL_UNIT_ASSIGNED_CONTEXT ( ( #223, #240, #243 ) ) REPRESENTATION_CONTEXT ( 'NONE', 'WORKASPACE' ) );
#243 =( NAMED_UNIT ( * ) SI_UNIT ( $, .STERADIAN. ) SOLID_ANGLE_UNIT ( ) );
#244 = CARTESIAN_POINT ( 'NONE',  ( 0.0000000000000000000, 0.0000000000000000000, -256.3850000000000500 ) ) ;
#245 = DIRECTION ( 'NONE',  ( 0.0000000000000000000, 0.0000000000000000000, 1.000000000000000000 ) ) ;
#246 = AXIS2_PLACEMENT_3D ( 'NONE', #244, #232, #248 ) ;
#247 =( GEOMETRIC_REPRESENTATION_CONTEXT ( 3 ) GLOBAL_UNCERTAINTY_ASSIGNED_CONTEXT ( ( #249 ) ) GLOBAL_UNIT_ASSIGNED_CONTEXT ( ( #225, #224, #230 ) ) REPRESENTATION_CONTEXT ( 'NONE', 'WORKASPACE' ) );
#248 = DIRECTION ( 'NONE',  ( 0.0000000000000000000, 1.000000000000000000, 0.0000000000000000000 ) ) ;
#249 = UNCERTAINTY_MEASURE_WITH_UNIT (LENGTH_MEASURE( 1.000000000000000100E-005 ), #225, 'distance_accuracy_value', 'NONE');
#250 = PRODUCT_DEFINITION_SHAPE ( 'NONE', 'NONE',  #257 ) ;
#251 = PRODUCT_RELATED_PRODUCT_CATEGORY ( 'part', '', ( #254 ) ) ;
#252 = SHAPE_DEFINITION_REPRESENTATION ( #250, #234 ) ;
#253 = APPLICATION_CONTEXT ( 'automotive_design' ) ;
#254 = PRODUCT ( '19318-E0W', '19318-E0W', '', ( #260 ) ) ;
#255 = APPLICATION_CONTEXT ( 'automotive_design' ) ;
#256 = PRODUCT_DEFINITION_FORMATION_WITH_SPECIFIED_SOURCE ( 'ANY', '', #254, .NOT_KNOWN. ) ;
#257 = PRODUCT_DEFINITION ( 'UNKNOWN', '', #256, #258 ) ;
#258 = PRODUCT_DEFINITION_CONTEXT ( 'detailed design', #253, 'design' ) ;
#259 = APPLICATION_PROTOCOL_DEFINITION ( 'draft international standard', 'automotive_design', 1998, #253 ) ;
#260 = PRODUCT_CONTEXT ( 'NONE', #255, 'mechanical' ) ;
#261 = APPLICATION_PROTOCOL_DEFINITION ( 'draft international standard', 'automotive_design', 1998, #255 ) ;
ENDSEC;
END-ISO-10303-21;
